Nirvana - Something In The Way Chords & Tabs

 

Something In The Way Chords & Tabs

Nirvana Chords & Tabs

Version: 11 Type: Tab 0 ratings
1 star 2 stars 3 stars 4 stars 5 stars
comments

Something In The Way Tab

Band:Nirvana
Album:Unplugged in New York
Title:Something In The Way

Notes:
Drop D tuning
Tune Down 1/2 Step
listen to the song to figure out the order

INTRO
Eb|--------------------------------------------------|
Bb|--------------------------------------------------|
Gb|--------------------------------------------------|
Db|--------------------------------------------------|
Ab|---4----4------0----0--------4----4------0----0---|
Db|4-----4---4-0-----0---0-4--4----4---4-0-----0---0-|

VERSE#1
Eb|-------------------------------------------------|
Bb|-------------------------------------------------|
Gb|-------------------------------------------------|
Db|-------------------------------------------------|
Ab|--------4------0-----------------------0----0----|
Db|-4----4---4-0-----0-4--4-4--4-4-4-0--0----0---0--|

Eb|-----------------------------------------------------|
Bb|-----------------------------------------------------|
Gb|-----------------------------------------------------|
Db|-----------------------------------------------------|
Ab|------4----4--------0----0------4----4------0----0---|
Db|-4--4----4---4-0--0----0---0-4-----4---4-0-----0---0-|

Eb|----------------------------------------------------|
Bb|----------------------------------------------------|
Gb|----------------------------------------------------|
Db|----------------------------------------------------|
Ab|---4----4--------0----0------4----4--------0----0---|
Db|4-----4---4-0--0----0---0-4-----4---4-0--0----0---0-|

Eb|------------------------------------------------------|
Bb|------------------------------------------------0-0-0-|
Gb|------------------------------------------------0-0-0-|
Db|------------------------------------------------0-0-0-|
Ab|-----4----4--------0----0--------4----4------0----0---|
Db|4--4----4---4-0--0----0---0-4--4----4---4-0-----0---0-|

CHORUS
Eb|---------------------------------------------------|
Bb|--------0---3330-------0-3330---------0---3-3-3-0--|
Gb|--------0---2220-------0-2220---------0---2-2-2-0--|
Db|4-44-4---0---00---4--44-4-0-00---4-44--4--0---0-0--|
Ab|4-44-4---0---0----4--44-4-0-0----4-44--4--0---0----|
Db|4-44-4---0---0----4--44-4-0-0----4-44--4--0---0----|
[ Tab from: http://www.guitartabs.cc/tabs/n/nirvana/something_in_the_way_tab_ver_11.html ]
Eb|---------------------------------------------------|
Bb|------0--33330-------0---3330--------0---3330------|
Gb|------0--22220-------0---2220--------0---2220------|
Db|4-4444-0--000-4--44-4-0---00--4--44-4-0---00-------|
Ab|4-4444-0--0-0-4--44-4-0---0---4--44-4-0---0--------|
Db|4-4444-0--0-0-4--44-4-0---0---4--44-4-0---0--------|

Eb|-------------------------------|
Bb|---------0----3330--------0--3-|
Gb|---------0----2220--------0--2-|
Db|-4--44-4---0---00--4-44-4----0-|
Ab|-4--44-4---0---0---4-44-4----0-|
Db|-4--44-4---0---0---4-44-4----0-|

VERSE#2
Eb|----------------------------------------------------|
Bb|----------------------------------------------------|
Gb|----------------------------------------------------|
Db|----------------------------------------------------|
Ab|----4------4------0---0------4------4--------0----0-|
Db|-4----4--4---0--0---0---4--4---4--4---0--0-0----0---|

Eb|----------------------------------------------------|
Bb|----------------------------------------------------|
Gb|----------------------------------------------------|
Db|----------------------------------------------------|
Ab|----4------------0---0---0-----------4-----0------0-|
Db|-4----4--4--0--0---0---0---4--4-4--4---0-0---0--0---|

Eb|----------------------------------------------0-0--|
Bb|--------------------------------------------0-0-0--|
Gb|--------------------------------------------0-0-0--|
Db|--------------------------------------------0-0-0--|
Ab|------4------4-----0------0----4------4-----0---0--|
Db|-4--4---4--4---0-----0--0---4----4--4---0-0-----0--|

CHORUS
Eb|---------------------------------------------------|
Bb|--------0---3330-------0-3330---------0---3-3-3-0--|
Gb|--------0---2220-------0-2220---------0---2-2-2-0--|
Db|4-44-4---0---00---4--44-4-0-00---4-44--4--0---0-0--|
Ab|4-44-4---0---0----4--44-4-0-0----4-44--4--0---0----|
Db|4-44-4---0---0----4--44-4-0-0----4-44--4--0---0----|

Eb|---------------------------------------------------|
Bb|------0--33330-------0---3330--------0---3330------|
Gb|------0--22220-------0---2220--------0---2220------|
Db|4-4444-0--000-4--44-4-0---00--4--44-4-0---00-------|
Ab|4-4444-0--0-0-4--44-4-0---0---4--44-4-0---0--------|
Db|4-4444-0--0-0-4--44-4-0---0---4--44-4-0---0--------|

Eb|-------------------------------|
Bb|---------0----3330--------0--3-|
Gb|---------0----2220--------0--2-|
Db|-4--44-4---0---00--4-44-4----0-|
Ab|-4--44-4---0---0---4-44-4----0-|
Db|-4--44-4---0---0---4-44-4----0-|
Comments