Nirvana - Something In The Way Chords & Tabs

 

Something In The Way Chords & Tabs

Nirvana Chords & Tabs

Version: 10 Type: Tab 0 ratings
1 star 2 stars 3 stars 4 stars 5 stars
comments

Something In The Way Tab

   
Artist: Nirvana
Album: Unplugged in NewYork
Title: Something in the Way

Tuning: Db Ab Db Gb Bb eb
Tune down half a step then drop D

Intro/Verses:

eb/--------------------------------|
Bb/--------------------------------|
Gb/--------------------------------|
Db/--------------------------------|
Ab/----4---4------0---0------------| Repeat for verses
Db/--4---4---4--0---0---0----------|
[ Tab from: http://www.guitartabs.cc/tabs/n/nirvana/something_in_the_way_tab_ver_10.html ]
Underneith the bridge
The tarp has sprung a leak
The animals are trapped
They've all become my pets
And I feed them off of grass
And drippings from the ceiling
It's okay to eat fish
Cuz they don't have any feeling.

Chorus

eb/-------------x-x-x-x----------------|
Bb/-------------3-3-3-3----------------|
Gb/--6-6-6-6-6--2-2-2-2----------------| Strum the chorus
Db/--4-4-4-4-4-------------------------| and listen to the
Ab/--4-4-4-4-4-------------------------| song for the timing.
Db/--4-4-4-4-4-------------------------|

Something in the way
oooh, oooh
Something in the way.yeah
oooh, oooh
Something in the way
oooh, oooh
Something in the way yeah
oooh, oooh

These are the parts, now you have to put em in order, any questions or comments
dmcphedran@hotmail.com
Comments