Nirvana - Something In The Way Chords & Tabs

 

Nirvana Chords & Tabs

Version: 1 Type: Tab 0 ratings
1 star 2 stars 3 stars 4 stars 5 stars
comments

Something In The Way Tab

Song:something in the way
Artist:Nirvana
Tabbed by:John

Dropped 'd' tuning
[ Tab from: http://www.guitartabs.cc/tabs/n/nirvana/something_in_the_way_tab.html ]
Verse
--------------------------------------------------------
--------------------------------------------------------
--------------------------------------------------------
-4--4--4--4--0--0--0--0---------------------------------
-4--4--4--4--0--0--0--0---------------------------------
-4--4--4--4--0--0--0--0---------------------------------

Chours
--------------0--0--0--0--------------------------------
--------------3--3--3--3--------------------------------
--------------2--2--2--2--------------------------------
-4--4--4--4---------------------------------------------
-4--4--4--4---------------------------------------------
-4--4--4--4---------------------------------------------
Comments