Nirvana - Something In The Way Acoustic Chords & Tabs

 

Something In The Way Acoustic Chords & Tabs

Nirvana Chords & Tabs

Version: 1 Type: Tab 0 ratings
1 star 2 stars 3 stars 4 stars 5 stars
comments

Something In The Way Acoustic Tab

   
Unplugged In NY - Something in the way - Nirvana




Something In The Way.
Tuning: 1/2 step down. then Drop D (Db,Ab,Db,Gb,Bb,eb)


INTRO:
|------------------------------------------------------------------|
|------------------------------------------------------------------|
|------------------------------------------------------------------|
|------------------------------------------------------------------|
|-----3------3---------0---0------------3-----3------------0---0---|
|--3-----3-----3----0----0---0----3--3-----3-----3----0--0---0---0-|


VERSE 1:

 Underneath  the  bridge       Tarp has sprung a  leak,  and the
|------------------------------------------------------------------|
|------------------------------------------------------------------|
|------------------------------------------------------------------|
|------------------------------------------------------------------|
|------3----3--------0---0----------3----3-----------0----0--------|
|-3-3-----3---3----0---0---0----3-3----3---3----0-0----0----0------|

  animals i've   trapped      all become my   pets,    and im
|------------------------------------------------------------------|
|------------------------------------------------------------------|
|------------------------------------------------------------------|
|------------------------------------------------------------------|
|------3----3--------0---0----------3----3-----------0----0--------|
|-3-3-----3---3----0---0---0----3-3----3---3----0-0----0----0------|

 living off of  grass, and the drippings from the ceiling,
|------------------------------------------------------------------|
|------------------------------------------------------------------|
|------------------------------------------------------------------|
|------------------------------------------------------------------|
|------3----3--------0---0----------3----3-----------0----0--------|
|-3-3-----3---3----0---0---0----3-3----3---3----0-0----0----0------|

  its OK  to eat  fish,  'cause they  don't have any feelin'.
|------------------------------------------------------------------|
|------------------------------------------------------------------|
|------------------------------------------------------------------|
|------------------------------------------------------------------|
|------3----3--------0---0----------3----3-----------0----0--------|
|-3-3-----3---3----0---0---0----3-3----3---3----0-0----0-----------|


CHORUS:
         Something in the way___
|-----------------------------------------------------------|
|-----------------------------------------------------------|
|-3--3----6---6--6--6--6---7---7--7--7--7-------------------|
|-3--3----4---4--4--4--4---7---7--7--7--7-------------------|
|-1--1----4---4--4--4--4---5---5--5--5--5-------------------|
|---------4---4--4--4--4------------------------------------|
   B5                      D5


 MMMmmmmmmm______________________
|----------------------------------------------------------|
|----------------------------------------------------------|
|-6---6--6--6--6---7---7--7--7--7--------------------------|
|-4---4--4--4--4---7---7--7--7--7--------------------------|
|-4---4--4--4--4---5---5--5--5--5--------------------------|
|-4---4--4--4--4-------------------------------------------|
                   D5


  Something in the way___   Yeah
|----------------------------------------------------------|
|----------------------------------------------------------|
|-6---6--6--6--6---7---7--7--7--7--------------------------|
|-4---4--4--4--4---7---7--7--7--7--------------------------|
|-4---4--4--4--4---5---5--5--5--5--------------------------|
|-4---4--4--4--4-------------------------------------------|
                   D5


 MMMmmmmmmm______________________
|----------------------------------------------------------|
|----------------------------------------------------------|
|-6---6--6--6--6---7---7--7--7--7--------------------------|
|-4---4--4--4--4---7---7--7--7--7--------------------------|
|-4---4--4--4--4---5---5--5--5--5--------------------------|
|-4---4--4--4--4-------------------------------------------|
                   D5

  Something in the way___   Yeah
|----------------------------------------------------------|
|----------------------------------------------------------|
|-6---6--6--6--6---7---7--7--7--7--------------------------|
|-4---4--4--4--4---7---7--7--7--7--------------------------|
|-4---4--4--4--4---5---5--5--5--5--------------------------|
|-4---4--4--4--4-------------------------------------------|
                   D5


 MMMmmmmmmm______________________
|----------------------------------------------------------|
|----------------------------------------------------------|
|-6---6--6--6--6---7---7--7--7--7--------------------------|
|-4---4--4--4--4---7---7--7--7--7--------------------------|
|-4---4--4--4--4---5---5--5--5--5--------------------------|
|-4---4--4--4--4-------------------------------------------|
                   D5

  Something in the way___   Yeah
|----------------------------------------------------------|
|----------------------------------------------------------|
|-6---6--6--6--6---7---7--7--7--7--------------------------|
|-4---4--4--4--4---7---7--7--7--7--------------------------|
|-4---4--4--4--4---5---5--5--5--5--------------------------|
|-4---4--4--4--4-------------------------------------------|
                   D5


 MMMmmmmmmm______________________
|----------------------------------------------------------|
|----------------------------------------------------------|
|-6---6--6--6--6---7---7--7--7--7--------------------------|
|-4---4--4--4--4---7---7--7--7--7--------------------------|
|-4---4--4--4--4---5---5--5--5--5--------------------------|
|-4---4--4--4--4-------------------------------------------|
                   D5


VERSE 2:
  Underneath the bridge       Tarp has sprung a leak, and the
|--------------------------------------------------------------|
|--------------------------------------------------------------|
|--------------------------------------------------------------|
|--------------------------------------------------------------|
|----3----3-----------0----0------3----3------------0----0-----|
|--3---3----3----0-0----0------3----3-----3----0-0----0--------|

  animals i've trapped         all become my pets, and im
|--------------------------------------------------------------|
|--------------------------------------------------------------|
|--------------------------------------------------------------|
|--------------------------------------------------------------|
|----3----3-----------0----0------3----3------------0----0-----|
|--3---3----3----0-0----0------3----3-----3----0-0----0--------|

 living off of grass, and the  drippings from the ceiling
|--------------------------------------------------------------|
|--------------------------------------------------------------|
|--------------------------------------------------------------|
|--------------------------------------------------------------|
|----3----3-----------0----0------3----3------------0----0-----|
|--3---3----3----0-0----0------3----3-----3----0-0----0-----0--|
[ Tab from: http://www.guitartabs.cc/tabs/n/nirvana/something_in_the_way_acoustic_tab.html ]
  its ok to eat fish 'cause they don't have any feelings
|----------------------------------------------------------------|
|----------------------------------------------------------------|
|----------------------------------------------------------3--3--|
|----------------------------------------------------------3--3--|
|----3----3-----------0----0------3----3------------0------1--1--|
|--3---3----3----0-0----0------3----3-----3----0-0----0----------|


CHORUS 2:

  Something in the way___   Yeah
|----------------------------------------------------------|
|----------------------------------------------------------|
|-6---6--6--6--6---7---7--7--7--7--------------------------|
|-4---4--4--4--4---7---7--7--7--7--------------------------|
|-4---4--4--4--4---5---5--5--5--5--------------------------|
|-4---4--4--4--4-------------------------------------------|
                   D5


 MMMmmmmmmm______________________
|----------------------------------------------------------|
|----------------------------------------------------------|
|-6---6--6--6--6---7---7--7--7--7--------------------------|
|-4---4--4--4--4---7---7--7--7--7--------------------------|
|-4---4--4--4--4---5---5--5--5--5--------------------------|
|-4---4--4--4--4-------------------------------------------|
                   D5



  Something in the way___   Yeah
|----------------------------------------------------------|
|----------------------------------------------------------|
|-6---6--6--6--6---7---7--7--7--7--------------------------|
|-4---4--4--4--4---7---7--7--7--7--------------------------|
|-4---4--4--4--4---5---5--5--5--5--------------------------|
|-4---4--4--4--4-------------------------------------------|
                   D5


 MMMmmmmmmm______________________
|----------------------------------------------------------|
|----------------------------------------------------------|
|-6---6--6--6--6---7---7--7--7--7--------------------------|
|-4---4--4--4--4---7---7--7--7--7--------------------------|
|-4---4--4--4--4---5---5--5--5--5--------------------------|
|-4---4--4--4--4-------------------------------------------|
                   D5


  Something in the way___   Yeah
|----------------------------------------------------------|
|----------------------------------------------------------|
|-6---6--6--6--6---7---7--7--7--7--------------------------|
|-4---4--4--4--4---7---7--7--7--7--------------------------|
|-4---4--4--4--4---5---5--5--5--5--------------------------|
|-4---4--4--4--4-------------------------------------------|
                   D5


 MMMmmmmmmm______________________
|----------------------------------------------------------|
|----------------------------------------------------------|
|-6---6--6--6--6---7---7--7--7--7--------------------------|
|-4---4--4--4--4---7---7--7--7--7--------------------------|
|-4---4--4--4--4---5---5--5--5--5--------------------------|
|-4---4--4--4--4-------------------------------------------|
                   D5



  Something in the way___   Yeah
|----------------------------------------------------------|
|----------------------------------------------------------|
|-6---6--6--6--6---7---7--7--7--7--------------------------|
|-4---4--4--4--4---7---7--7--7--7--------------------------|
|-4---4--4--4--4---5---5--5--5--5--------------------------|
|-4---4--4--4--4-------------------------------------------|
                   D5


 MMMmmmmmmm______________________
|----------------------------------------------------------|
|----------------------------------------------------------|
|-6---6--6--6--6---7---7--7--7--7--------------------------|
|-4---4--4--4--4---7---7--7--7--7--------------------------|
|-4---4--4--4--4---5---5--5--5--5--------------------------|
|-4---4--4--4--4-------------------------------------------|
                   D5


  Something in the way___   Yeah
|----------------------------------------------------------|
|----------------------------------------------------------|
|-6---6--6--6--6---7---7--7--7--7--------------------------|
|-4---4--4--4--4---7---7--7--7--7--------------------------|
|-4---4--4--4--4---5---5--5--5--5--------------------------|
|-4---4--4--4--4-------------------------------------------|
                   D5


 MMMmmmmmmm______________________
|----------------------------------------------------------|
|----------------------------------------------------------|
|-6---6--6--6--6---7---7--7--7--7--------------------------|
|-4---4--4--4--4---7---7--7--7--7--------------------------|
|-4---4--4--4--4---5---5--5--5--5--------------------------|
|-4---4--4--4--4-------------------------------------------|
                   D5


  Something in the way___   Yeah
|----------------------------------------------------------|
|----------------------------------------------------------|
|-6---6--6--6--6---7---7--7--7--7--------------------------|
|-4---4--4--4--4---7---7--7--7--7--------------------------|
|-4---4--4--4--4---5---5--5--5--5--------------------------|
|-4---4--4--4--4-------------------------------------------|
                   D5


 MMMmmmmmmm______________________
|----------------------------------------------------------|
|----------------------------------------------------------|
|-6---6--6--6--6---7---7--7--7--7--------------------------|
|-4---4--4--4--4---7---7--7--7--7--------------------------|
|-4---4--4--4--4---5---5--5--5--5--------------------------|
|-4---4--4--4--4-------------------------------------------|
                   D5


  Something in the way___   Yeah
|----------------------------------------------------------|
|----------------------------------------------------------|
|-6---6--6--6--6---7---7--7--7--7--------------------------|
|-4---4--4--4--4---7---7--7--7--7--------------------------|
|-4---4--4--4--4---5---5--5--5--5--------------------------|
|-4---4--4--4--4-------------------------------------------|
                   D5


 MMMmmmmmmm______________________
|----------------------------------------------------------|
|----------------------------------------------------------|
|-6---6--6--6--6---7---7--7--7--7--------------------------|
|-4---4--4--4--4---7---7--7--7--7--------------------------|
|-4---4--4--4--4---5---5--5--5--5--------------------------|
|-4---4--4--4--4-------------------------------------------|
                   D5


  Something in the way___   Yeah
|----------------------------------------------------------|
|----------------------------------------------------------|
|-6---6--6--6--6---7---7--7--7--7--------------------------|
|-4---4--4--4--4---7---7--7--7--7--------------------------|
|-4---4--4--4--4---5---5--5--5--5--------------------------|
|-4---4--4--4--4-------------------------------------------|
                   D5


 MMMmmmmmmm______________________
|----------------------------------------------------------|
|----------------------------------------------------------|
|-6---6--6--6--6---7---7--7--7--7--------------------------|
|-4---4--4--4--4---7---7--7--7--7--------------------------|
|-4---4--4--4--4---5---5--5--5--5--------------------------|
|-4---4--4--4--4-------------------------------------------|
                   D5
Comments