Nirvana - Smells Like Teen Spirit Chords & Tabs

 

Smells Like Teen Spirit Chords & Tabs

Nirvana Chords & Tabs

Version: 5 Type: Tab 0 ratings
1 star 2 stars 3 stars 4 stars 5 stars
comments

Smells Like Teen Spirit Tab

   
Nirvana – Smells like teens spirit
by: gonza
gserradasduarte@hotmail.com

Intro and Chorus :
              F                 A#                G#                   C#
E|------------1-----------------6-----------------4--------------------9-----------------------|
B|------------1-----------------6-----------------4--------------------9-----------------------|
G|------------2-----------------7-----------------5-------------------10-----------------------|
D|------------3-----------------8-----------------6-------------------11-----------------------|
A|------------3-----------------8-----------------6-------------------11-----------------------|
E|------------1-----------------6-----------------4--------------------9-----------------------|

Verses :
              |--------------------------------------------------------------------------------|
              |---------6----------------------------------------------------------------------|
Guitar 1      |----5---------------------------------------------------------------------------|
              |--------------------------------------------------------------------------------|
              |--------------------------------------------------------------------------------|
              |--------------------------------------------------------------------------------|
[ Tab from: http://www.guitartabs.cc/tabs/n/nirvana/smells_like_teen_spirit_tab_ver_5.html ]
              |--------------------------------------------------------------------------------|
              |--------------------------------------------------------------------------------|
Guitar 2      |--------------------------------------------------------------------------------|
              |--------------------------------------------------------------------------------|
              |--------------------------------------------------3--3--3--3--------------------|
              |---1--1--1--1--1--1--1--1-----3--3--3--3----------------------------------------|

Almost at the end of the verse, guitar 1 accelerate his notes. Guitar 2 keep his rhythm.

Solo :
|-----------------------------------------------------------------------------------------------
|------4---6-------4----4/6p4----2---1----2----1-------------------1----------------------------
|--5-----------3---------------------------------------3----1----3---------3-----1-----0--------
|-----------------------------------------------------------------------------------------------
|-----------------------------------------------------------------------------------------------
|-----------------------------------------------------------------------------------------------

------------------------------------------------------------------------------------------------
-------4---6-------4----4/6p4----2---1----2----1-------------------1----------------------------
---5-----------3---------------------------------------3----1----3---------3-----1-----0--------
------------------------------------------------------------------------------------------------
------------------------------------------------------------------------------------------------
------------------------------------------------------------------------------------------------

-------------------------------------------------------------------------------------------|
-------------------------------------------------------------------------------------------|
--1----0----1----0----1----0----1----0-----0-----------------------------------------------| [ 4 times ]
------------------------------------------------------3------------------------------------|
-------------------------------------------------------------------------------------------|
-------------------------------------------------------------------------------------------|

The tab sounds really really good. Try it.
Gonza
Comments