Nirvana - Smells Like Teen Spirit Chords & Tabs

 

Smells Like Teen Spirit Chords & Tabs

Nirvana Chords & Tabs

Version: 4 Type: Tab 3 ratings
1 star 2 stars 3 stars 4 stars 5 stars
comments

Smells Like Teen Spirit Tab

   
Nirvana
Smells Like Teen Spirit
Nevermind
1991

Tuning: Standard
^=Bend

This is one of the first songs that I learned and it one of my favorites. 
It’s a pretty easy one to learn and this tab is correct, so have fun with it.


Part A –x6
E|--------------------------------------------------------|
B|--------------------------------------------------------|
G|------------------3--3-3--0-------------------6--6-6—-0-|
D|-3--3-3--x-x-x-x--3--3-3--0--6--6-6--x-x-x-x--6--6-6—-0-|
A|-3--3-3--x-x-x-x--1--1-1--0--6--6-6--x-x-x-x--4--4-6--0-|
E|-1--1-1--x-x-x-x-------------4--4-4--x-x-x-x------------|

Part B –x6
E|--1-|
B|-1--|
G|----|
D|----|
A|----|
E|----|

Part C –x4
E|---1---1---1---1-|
B|-1---1---1---1---|
G|-----------------|
D|-----------------|
A|-----------------|
E|-----------------|
[ Tab from: http://www.guitartabs.cc/tabs/n/nirvana/smells_like_teen_spirit_tab_ver_4.html ]
Part A –x6

Part D –x2  [^=Bend]
E|-------------------------------------|
B|-------------------------------------|
G|---------------3^-----------3-3------|
D|-3-3-3-3--4-4------3-3-3-3--3-3--6-6-|
A|-3-3-3-3--4-4------3-3-3-3--1-1--6-6-|
E|-1-1-0-1--2-2------1-1-0-1-------4-4-|

Part B –x6
Part C –x4
Part A –x6
Part D –x2

Solo 
 <     This Part Played 2x     > < This Part Played 4x>
E|----------|---------|---------|-----------------------|
B|------6---|---6-----|---------|-----------------------|
G|--5-8-----|-8---6-5-|-6-5-----|-----------------------|
D|--------6-|---------|-----8-6-|--6-5--6-5--6-5--6-5---|
A|----------|---------|---------|---------------------8-|
E|----------|---------|---------|-----------------------|

There is a break here then…

Part C –x4
Part A –x10

The End
Comments