Nirvana - Smells Like Teen Spirit Chords & Tabs

 

Smells Like Teen Spirit Chords & Tabs

Nirvana Chords & Tabs

Version: 11 Type: Tab 0 ratings
1 star 2 stars 3 stars 4 stars 5 stars
comments

Smells Like Teen Spirit Tab

Written by Kurt Cobain
Tabbed By Matt Schillaci
I tabbed this from the Saturday Night Live Preformance, I'm sure its 100% correct
^ - bend
p - pull off

[ Tab from: http://www.guitartabs.cc/tabs/n/nirvana/smells_like_teen_spirit_tab_ver_11.html ]
------------------------------------------------|
------------------------------------------------|
----4--6-----4--4^--2-1--2-1--------------------|
-6-------2--------------------4--2--4--4^--2-1--|
------------------------------------------------|
------------------------------------------------|  X2

------------------------------------------------|
------------------------------------------------|
--2-1--X3-----2p1-------------------------------|
-------------------3----------------------------|
------------------------------------------------|
------------------------------------------------| X4
Comments