Nirvana - Smells Like Teen Spirit Solo Chords & Tabs

 

Smells Like Teen Spirit Solo Chords & Tabs

Nirvana Chords & Tabs

Version: 1 Type: Tab 14 ratings
1 star 2 stars 3 stars 4 stars 5 stars
comments

Smells Like Teen Spirit Solo Tab

Hey guys this is the right way to play the solo to Smells Like Teen Spirit.
I've seen some pretty wrong tabs and it is pissing me off... Here
[ Tab from: http://www.guitartabs.cc/tabs/n/nirvana/smells_like_teen_spirit_solo_tab.html ]
e----------1---------------------------------------------
b---1---4-------4^---2-1--2-1------------------------X 2
g------------1-----------------3---1---2-3^---1-0--------
D--------------------------------------------------------
a--------------------------------------------------------
e--------------------------------------------------------

E-------------------------------------------------------------------
B---------------------------------X4----------------------------------
G--1-0--1--0--1-0--1-0--1^--0--------------------------------------------------
D------------------------------3-------------------------------------
A-------------------------------------------------------------------
E-------------------------------------------------------------------


Comments