Nirvana - Smells Like Teen Spirit Chords & Tabs

 

Smells Like Teen Spirit Chords & Tabs

Nirvana Chords & Tabs

Version: 6 Type: Bass Tab 0 ratings
1 star 2 stars 3 stars 4 stars 5 stars
comments

Smells Like Teen Spirit Bass Tab

!!! England !!!The REAL tab for Nirvana - Smells Like Teen Spirit is as follows. This is from the Nirvana Bass Collection book so this is right!

INTRO
          *            Bass fig 1.                    *
G--|------|---------------------|---------------------|
D--|------|:--------------------|--------------------:|
A--|------|:-----------1-1--1/3-|---------4-4--4--3\-:|
E--|-4/6--|--1--1-1-------------|-4--4-4--------------|

play that : 3 time's : then the end part on the 4th time u play

G----------------------|
D----------------------|
A-----------4-4-4-4-4\-|
E-4--4-4---------------|

 *              Bass fig 2.                          *
G--------------------------|-------------------------|
D--------------------------|-------------------------|
A-------------1--1--1--1/3-|-------------4--4--4--3\-|
E-1--1--1--1---------------|-4--4--4--4--------------|

play that 5 and a half times... then play...

 * Bass fill 1.       *
G---------------------|
D---------------------|
A-------------4--4--4-|
E-4--4--4--4----------|


Pre-Chorus. played 4 times
G--------------------------|-------------------------|
D--------------------------|-------------------------|
A-------------1--1--1--1/3-|-------------4--4--4--3\-|
E-1--1--1--1---------------|-4--4--4--4--------------|


Then Chorus x6
G-------------------|-------------------|
D-------------------|-------------------|
A----------1-1--1/3-|--------4-4--4--3\-|
E-1--1-1------------|-4--4-4------------|

[ Tab from: http://www.guitartabs.cc/tabs/n/nirvana/smells_like_teen_spirit_btab_ver_6.html ]
Bridge x2
G------------------|--------------------------------|
D------------------|--------------------------------|
A------------------|------------------4--4---4---3\-|
E-1--1--0--1--2--2-|-4----4--4----------------------|


Guitar Solo
G-----------------------------|----------------------------|
D-----------------------------|----------------------------|
A------------------1--1---1/3-|--------------4--4---4---3\-|
E-1----1--1-------------------|-4---4--4-------------------| x8 

G---------------------------------|------------------------|
D---------------------------------|------------------------|
A-----------------1---1---1---1/3-|--------------4--4--4--3|
E-1---1---1---1-------------------|-4--4--4--4-------------| x2

Then back to verse where you play up to the chorus (played 5 times) then skip the bridge and guitar solo to play...

G------------------|------------------|
D------------------|------------------|
A---------1-1--1/3-|--------4-4--4--3-|
E-1--1-1-----------|-4--4-4-----------| x4 (recap memory, Chorus)


then.... (bass fig 1.) i think 4 times....
G----------------------|-------------------------|
D----------------------|-------------------------|
A-------------1-1--1/3-|-------------4-4--4---3\-|
E-1----1-1-------------|-4----4-4----------------|

G------|-----|-----|
D------|-----|-----|
A------|-----|-----|
E-1----|-----|-----| (let ring until end of song..)


That's it...!


Any comments or slaggings etc.. please  email me at mantis_wolf50@hotmail.com

It took me about 5 hours to read all the bloody info in this book to write it on here. If its not what the song sounds like your either

1. playing it wrong
2. not practising enough
(or)
3. i tabbed it wrong

If you think its 3 then contact me..
Cheers!
Comments