Nirvana - Smells Like Teen Spirit Chords & Tabs

 

Smells Like Teen Spirit Chords & Tabs

Nirvana Chords & Tabs

Version: 3 Type: Bass Tab 2 ratings
1 star 2 stars 3 stars 4 stars 5 stars
comments

Smells Like Teen Spirit Bass Tab

Nirvana
 Smells like teen spirit

Intro/ chorus 
G---------------------------------------------
D---------------------------------------------	
A------------1-1-1-1-------------4-4-4-4--
E-1-1-1-----------------4-4-4---------------
[ Tab from: http://www.guitartabs.cc/tabs/n/nirvana/smells_like_teen_spirit_btab_ver_3.html ]
Verse
G-----------------------------------------------
D-----------------------------------------------
A-----------1-1-1-1----------------4-4-4-4--	
E-1-1-1-1---------------4-4-4-4--------------

link
G-------------------------------------------------
D-------------------------------------------------
A--------------------3333—1-1----------------	
E-11111111-22-----------------4-4-----------

Order 
Intro / chorus *5
Verse *10
Intro chorus *6
Link  *2
Verse *10
Intro chorus *6
Link *2
Intro chorus *6
Verse *4
Intro chorus *8
Comments