Nirvana - Smells Like Team Spirit Chords & Tabs

 

Smells Like Team Spirit Chords & Tabs

Nirvana Chords & Tabs

Version: 1 Type: Tab 2 ratings
1 star 2 stars 3 stars 4 stars 5 stars
comments

Smells Like Team Spirit Tab

   
opening chords:

e|-----------------------------|-----------------------------|           
B|-----------------------------|-----------------------------|           
G|--------------x-x-x----3--3--|--------------x-x-x----6--6--|           
D|--3--3---3----x-x-x----3--3--|--6--6---6----x-x-x----6--6--|           
A|--3--3---3----x-x-x----1--1--|--6--6---6----x-x-x----4--4--|           
E|--1--1---1----x-x-x----------|--4--4---4----x-x-x----------|           
    ^  ^   |    ^ ^ |    ^  ^     ^  ^   |    ^ ^ |    ^  ^              
                                                                         
      play this twice
(clean)                                              
      then deluge with distortion, play 10 times or listen to the tape to
get the count
                                                                         
                                                                         
play this clean under the melody.                                        

part
(B)                                                                         
|----------------|----------------|----------------|                     
|--------6-------|--------6-------|--------6-------|                     
|--5-------------|--5-------------|--5-------------|                     
|----------------|----------------|----------------|                     
|----------------|----------------|----------------|                     
|----------------|----------------|----------------|                     
                                 ... Load up on guns ...                 
|----------------|----------------|----------------|                     
|--------6-------|--------6-------|--------6-------|                     
|--5-------------|--5-------------|--5-------------|                     
|----------------|----------------|----------------|                     
|----------------|----------------|----------------|                     
|----------------|----------------|----------------|                     
                                                                         
|----1-----------|----1-----------|----1-----------|                     
|--1-------------|--1-------------|--1-------------|                     
|----------------|----------------|----------------|                     
|----------------|----------------|----------------|                     
|----------------|----------------|----------------|                     
|----------------|----------------|----------------|                     
   Hello...         Hello...         Hello...                            
|----1-----------|----1-----------|----1-----------|                     
|--1-------------|--1-------------|--1-------------|                     
|----------------|----------------|----------------|                     
|----------------|----------------|----------------|                     
|----------------|----------------|----------------|                     
|----------------|----------------|----------------|                     
  How Low...        Hello...         Hello...                            
                                                                         
|----1-----------|----1-----------|----1-----------|                     
|--1-------------|--1-------------|--1-------------|                     
|----------------|----------------|----------------|                     
|----------------|----------------|----------------|                     
|----------------|----------------|----------------|                     
|----------------|----------------|----------------|                     
   Hello...         How Low...        Hello...                           
|----1-----------|----1-----------|----1-----------|                     
|--1-------------|--1-------------|--1-------------|                     
|----------------|----------------|----------------|                     
|----------------|----------------|----------------|                     
|----------------|----------------|----------------|                     
|----------------|----------------|----------------|                     
  Hello...          Hello...         How Low                             
                                                                         
|----1-----------|----1-----------|----1-----------|                     
|--1-------------|--1-------------|--1-------------|                     
|----------------|----------------|----------------|                     
|----------------|----------------|----------------|                     
|----------------|----------------|----------------|                     
|----------------|----------------|----------------|                     
  Hello...          Hello...         Hello...                            
                                                                         
                          (Distortion)                                   
e|-----------------------------|-----------------------------|           
B|-----------------------------|-----------------------------|           
G|--------------x-x-x----3--3--|--------------x-x-x----6--6--|           
D|--3--3---3----x-x-x----3--3--|--6--6---6----x-x-x----6--6--|           
A|--3--3---3----x-x-x----1--1--|--6--6---6----x-x-x----4--4--|           
E|--1--1---1----x-x-x----------|--4--4---4----x-x-x----------|           
    ^  ^   |    ^ ^ |    ^  ^     ^  ^   |    ^ ^ |    ^  ^              
    With the lights out! ...                                             
   

Heres the bridge ...
                                                                     
e|------------------------------|
B|------------------------------|
G|-----------------------3^-----|
D|--3----2---3---4---4----------|
A|--3----2---3---4---4----------|
E|--1----0---1---2---2----------|
                      
[ Tab from: http://www.guitartabs.cc/tabs/n/nirvana/smells_like_team_spirit_tab.html ]
e|----------------------------|
B|----------------------------|
G|----------------------------|
D|--3-----2---3----8---8---6--|
A|--3-----2---3----8---8---6--|
E|--1-----0---1----6---6---4--|

          
e|------------------------------|
B|------------------------------|
G|-----------------------3^-----|
D|--3----2---3---4---4----------|
A|--3----2---3---4---4----------|
E|--1----0---1---2---2----------|
                    

e|-----------------------------------|
B|-----------------------------------|
G|-----------------------------------|
D|--3-----2---3----8---8---6-----5---|
A|--3-----2---3----8---8---6-----5---|
E|--1-----0---1----6---6---4-----3---|

                                  
play part B again

                                                                         
... I'm worst at what I do best and for this gift I feel blessed...

then again the chords

followed by the bridge

and then the
solo:                                                                        
                                                                         
e|----------------|---------------------|----------------|-------------
B|--------4-------|--6------------------|--4-----6-------|--4----------
G|--5-------------|---------------------|----------------|-------------
D|----------------|----------6----------|----------------|-------------
A|----------------|---------------------|----------------|-------------   
E|----------------|---------------------|----------------|-------------
       
                                              
-----------------|----------------|---------------------|---------------
2----------------|--2-----1-------|---------------------|---------------
------5----------|----------------|--3-------1----------|--3------------
-----------------|----------------|---------------------|---------------
-----------------|----------------|---------------------|---------------
-----------------|----------------|---------------------|---------------        
         
      
                                                      
--------|-------------------------|----------------|--1-----------------
1-------|-------------------------|--1-----4-------|--------------------
--------|--3-----1-----0----------|----------------|--------------------
--------|-------------------------|----------------|--------------------
--------|-------------------------|----------------|--------------------
--------|-------------------------|----------------|--------------------
      
                                                                            
-----------|--------1-------|-------------------------|-----------------
-----------|--4-------------|--4-----2-----1----------|--2-----1--------
1----------|----------------|-------------------------|-----------------
-----------|----------------|-------------------------|-----------------
-----------|----------------|-------------------------|-----------------
-----------|----------------|-------------------------|-----------------
                     
                                          
|---------------------|----------------|--------------------|-----------
|---------------------|--------1-------|--------------------|-----------
|--3-------1----------|--3-------------|--3-----1-----0-----|-----------
|---------------------|----------------|--------------------|--3--------
|---------------------|----------------|--------------------|-----------
|---------------------|----------------|--------------------|-----------
     

                                                                    
-----------------|-------------------|----------------|-----------------
-----------------|-------------------|----------------|-----------------
1-----0----------|--1-----0----------|--1-----0-------|--1-----0--------
-----------------|-------------------|----------------|-----------------
-----------------|-------------------|----------------|-----------------
-----------------|-------------------|----------------|-----------------
                       
                                                            
------|---------------------------|-------------------|-----------------
------|---------------------------|-------------------|-----------------
0-----|----------1-----0----------|--1-----0----------|--1-----0--------
------|--3------------------------|-------------------|-----------------
------|---------------------------|-------------------|-----------------
------|---------------------------|-------------------|-----------------
                 
                                                                    
|--------------------|---------------------------|----------------------
|--------------------|---------------------------|----------------------
|--1-----0-----0-----|----------1-----0----------|--1-----0-------------
|--------------------|--3------------------------|----------------------
|--------------------|---------------------------|----------------------
|--------------------|---------------------------|----------------------
              
                                                                    
|----------------|--------------------|---------------------------|-----
|----------------|--------------------|---------------------------|-----
|--1-----0-------|--1-----0-----0-----|----------1-----0----------|-----
|----------------|--------------------|--3------------------------|-----
|----------------|--------------------|---------------------------|-----
|----------------|--------------------|---------------------------|-----

                                                           
-----------------|----------------|
-----------------|----------------|
1-----0----------|--1-----0-------|
-----------------|----------------|
-----------------|----------------|
-----------------|----------------|

part B

then again the chords

(Boo Yeah!)

- a denial a denial a denial !!!
                                                                             
                                                                         
   ^ - means downstroke
   | - means upstroke  
Comments