Nirvana - Sliver Chords & Tabs

 

Sliver Chords & Tabs

Nirvana Chords & Tabs

Version: 4 Type: Tab 0 ratings
1 star 2 stars 3 stars 4 stars 5 stars
comments

Sliver Tab

k there are two parts to sliver, this is and easy yet amazing song, ill
put both bass and six string.

intro

bass
e-------------------------------------\
b------------------------------------\
g-------------------------------------\--
d----------------------------------------\
a-3-3-3-----3-1-0---0-1-3-3-3----0-0---0-1-\
e------1-1---------3---------1-1-----3----\

chorus

bass
[ Tab from: http://www.guitartabs.cc/tabs/n/nirvana/sliver_tab_ver_4.html ]
e----------------------------------------\
b----------------------------------------\
g----------------------------------------\
d----------------------------------------\
a--------3-3-3-3-----3-3-3-3---3-3-3-3---\
e------5-----------5---------5-----------\

guitar 

repeat
e------------\
b------------\
g------------\
g--7-5-5-5-5-7\
a--7-3-3-3-3-7\
e--5---------5-\


thats it, play with distortion and treble, this is a great song
from my favorite band.

u can email at eat_sleep_girls@hotmail.com
Comments