Nirvana - Sliver Chords & Tabs

 

Sliver Chords & Tabs

Nirvana Chords & Tabs

Version: 3 Type: Tab 0 ratings
1 star 2 stars 3 stars 4 stars 5 stars
comments

Sliver Tab

Artist: Nirvana
Song:Sliver

This is supposed to be the Bass Intro-Verse 1 but its 
good on a guitar to.

e---------------------------------------------------------------------
B---------------------------------------------------------------------
G---------------------------------------------------------------------
D---------------------------------------------------------------------       
A-3----3----0-------------------3----1----0------0-----1--------------   
E----------------1----1----1------------------3-----------------------
 
Chorus: w/Distortion
e---------------------------------------------------------------------
B---------------------------------------------------------------------
G------------------------5--5--5-------------------------------5--5--5
D---7--7--7-----------5--5--5-----------7--7--7----------5--5--5------
A---7--7--7-----------3--3--3-----------7--7--7----------3--3--3------
E---5--5--5--------------------------------5--5--5-------------------- 
[ Tab from: http://www.guitartabs.cc/tabs/n/nirvana/sliver_tab_ver_3.html ]
Verse 2
e---------------------------------------------------------------------
B---------------------------------------------------------------------
G----5--5--5-------------------------5--5--5--------------------------
D----5--5--5--------3--3--3-------5--5--5------7--7--7---8------------
A----3--3--3--------3--3--3-------3--3--3------7--7--7---8------------
E----------------------1--1--1-----------------------5--5--5---6------
     
Chorus

Verse 3      
e---------------------------------------------------------------------
B---------------------------------------------------------------------
G----5--5--5-------------------------5--5--5--------------------------
D----5--5--5--------3--3--3-------5--5--5------7--7--7---8------------
A----3--3--3--------3--3--3-------3--3--3------7--7--7---8------------
E----------------------1--1--1-----------------------5--5--5---6------
   
Chorus
  
Verse 4           
e---------------------------------------------------------------------
B---------------------------------------------------------------------
G-------5--(5)--(5)---------------------------------------------------
D-------5--(5)--(5)---------------------------------------------------
A-------3--(3)--(5)---------------------------------------------------
E---------------------------------------------------------------------

Chorus  
Comments