Nirvana - Sliver Chords & Tabs

 

Sliver Chords & Tabs

Nirvana Chords & Tabs

Version: 2 Type: Tab 2 ratings
1 star 2 stars 3 stars 4 stars 5 stars
comments

Sliver Tab

   
Band: Nirvana
Song: Sliver
tabbed by paul-online@gmx.net


INTRO + 1st VERSE :
e ------------------------------|  This part is actually for the
B ------------------------------|  bass guitar.
G ------------------------------|  
D ------------------------------|  
A ---3--3-3--------3--1-0---0-1-|  Repeat twice for intro & then
E ----------1--1-1---------3----|  3x for the first verse

[ Tab from: http://www.guitartabs.cc/tabs/n/nirvana/sliver_tab_ver_2.html ]
CHORUS : 
       A        C     G
e -------------------------|
B -------------------------|
G --------------5-5-5------|
D -----7-7-7----5-5-5-5----|
A -----7-7-7----3-3-3-5----|
E -----5-5-5----------3----|


2nd + 3rd VERSE : 
    C      F      C   Bb A  G A Bb
e -----------------------------------|  
B -----------------------------------|  
G --5--5-5--------5------------------|  
D --5--5-5-3--3-3-5----8-7--5-7-8----|  
A --3--3-3-3--3-3-3----8-7--5-7-8----|  
E ---------1--1-1------6-5--3-5-6----|  


4th VERSE :
     C
e ----------|
B ----------|
G ---5-5-5--|  Play this between every line of the verse
D ---5-5-5--|
A ---3-3-3--|
E ----------|

Comments