Nirvana - Serve The Servants Chords & Tabs

 

Serve The Servants Chords & Tabs

Nirvana Chords & Tabs

Version: 7 Type: Tab 0 ratings
1 star 2 stars 3 stars 4 stars 5 stars
comments

Serve The Servants Tab

   
   serve the servants - nirvana


Tabbed by:afi_nirvana90
Email:vegeta62190@yahoo.com

Tuning:standard
intro/verse:
e|--------------------------------------------------------------------------|
B|--------3-3---------------------------------------------------------------|
G|---2-2-1-1------444-------222---------------------------------------------|
D|--1-1-2-----4-x-444-x-2-x-222---------------------------------------------|
A|-2----------4-x-222-x-2-x-000---------------------------------------------|
E|------------2-x-----x-0-x-------------------------------------------------|
repeat until chorus

chorus:
e|--------------------------------------------------------------------------|
B|--------------------------------------------------------------------------|
G|--------44444---------444444----------------------------------------------|
D|-777777-44444--777777-444444--444444--------------------------------------|
A|-777777-66666--777777-666666--444444--------------------------------------|
E|-555555--------555555---------666666--------------------------------------|
     do this 4x's then:
[ Tab from: http://www.guitartabs.cc/tabs/n/nirvana/serve_the_servants_tab_ver_7.html ]
e|---------------------------------14---------------------------------------|
B|------------------------------14----14------------------------------------|
G|------------------------------13-------13---------------------------------|
D|-44444444-66666666------------12------------------------------------------|
A|-44444444-66666666--------------------------------------------------------|
E|-22222222-44444444--------------------------------------------------------|
    do that one time^, then this^, then repeat verse, then chorus then the solo. I only 
a little bit of the solo

--------------------------------|------------------------------------|
------------0-----0-------------|------------------------------------|
--4b-----4-----4-----4--4-4-4-4-|--4-4-4-4-4-4-4-4-4-4-4-4-4-4-4--4--|
--------------------------------|------------------------------------|
--------------------------------|------------------------------------|
--------------------------------|------------------------------------|

e|--------------------------------------------------------------------------|
B|--------------------------------------------------------------------------|
G|-4-2-0--------------------------------------------------------------------|
D|--------------------------------------------------------------------------|
A|---------------2b2b2b22\4b4b4b444/2222------------------------------------|
E|--------3-3-3--------------------------0----------------------------------|

e|--------------------------------------------------------------------------|
B|--------------------------------------------------------------------------|
G|--------------------------------------------------------------------------|
D|----14141414141414--------------------------------------------------------|
A|----16161616161616--------------------------------------------------------|
E|-10b---------------5b5b5b5b\7b7b7b/5555-----------------------------------|


thats all i know sorry.
after the solo repeat chorus then thats the end.

| /  slide up
| \  slide down
| h  hammer-on
| p  pull-off
| ~  vibrato
| +  harmonic
| x  Mute note
Comments