Nirvana - Serve The Servants Chords & Tabs

 

Serve The Servants Chords & Tabs

Nirvana Chords & Tabs

Version: 4 Type: Tab 0 ratings
1 star 2 stars 3 stars 4 stars 5 stars
comments

Serve The Servants Tab

                                                                       Nirvana
Guitar 1



                                                                   
E||------------------|--------------------|--14-------------------|
B||------------------|--14----------------|--------14--------x----|
G||------------------|--13----------------|------------------x----|
D||------------------|--12----------------|------------------x----|
A||------------------|--x-----------------|-----------------------|
E||------------------|--0-----------------|-----------------------|


                                                                            
------------------|------------------|------------------|------------------|
------------------|------------------|------------------|------------------|
------------------|------------------|------------------|------------------|
------------------|------------------|------------------|------------------|
------------------|------------------|------------------|------------------|
------------------|------------------|------------------|------------------|


                                                                      
--------------------------------|------------------------------------|
------------0-----0-------------|------------------------------------|
--4b-----4-----4-----4--4-4-4-4-|--4-4-4-4-4-4-4-4-4-4-4-4-4-4-4--4--|
--------------------------------|------------------------------------|
--------------------------------|------------------------------------|
--------------------------------|------------------------------------|


                                                                              
---------------------------|---------0----0-0-------|------------------------|
---------------------------|---------0----0-0-------|------------------------|
--4--2--0--0---------------|---------0----0-0-------|------------------------|
-----------0---------------|------------------------|-----------7r-----------|
-----------0---------------|------------------2--0--|--6/-7--7--7r-----5b----|
--------------3--3b---3b---|--0---------------------|--0------------------7--|

[ Tab from: http://www.guitartabs.cc/tabs/n/nirvana/serve_the_servants_tab_ver_4.html ]
                                                                          
-----------------------|-----------------------|-------------------------|
-----------------------|-----------------------|-------------------------|
-----------------------|-----------------------|-------------------------|
-----------------------|-----------------------|-------------------------|
--0--2--2r---2----2~---|--2/-4--4--4b-----4r---|--4\-2--2--2~---2--2-----|
-----------------------|-----------------------|----------------------0--|


                                                               
--------------------------------|-----------------------------|
--------------------------------|-----------------------------|
--------------------------------|-----------------------------|
--------14--14b-14--14--14--14--|--14--14--14--14-------------|
--10b---16--16b-16--16--16--16--|--16--16--16b-16\------------|
--------------------------------|--------------------5--5~--5-|


                                                                         
-----------------------|---------0-----------|--------------------------|
-----------------------|---------0-----------|-----------------8--------|
-----------------------|---------------------|--------4--6/-7-----6--7--|
-----------------------|---------------------|--4--6--------------------|
-----------------------|---------------------|--------------------------|
--5/-7--7--7b-----7b---|--7~------------7----|--------------------------|


                                                                              
-----------------------------|---------------------------|-------------------|
--------10--10--10--8--------|---------------------------|-------------------|
--7/-9--9---9---9---7\-6--6--|--6/-7--7--6-7-6--7--6--7--|--2----------------|
-----------------------------|---------------------------|--2----------------|
-----------------------------|---------------------------|--0----------------|
-----------------------------|---------------------------|-------------------|


                        
----------------------||
----------------------||
--2--2--2--2----------||
--2--2--2--2----------||
--0--0--0--0----------||
----------------------||

Comments