Nirvana - Seasons In The Sun Chords & Tabs

 

Seasons In The Sun Chords & Tabs

Nirvana Chords & Tabs

Version: 5 Type: Tab

Seasons In The Sun Tab

   
Nirvana

Seasons in the sun (Cover, Demo)

D Tuning

Intro

|-------------------------------------------|
|--------7----------------------------------|
|--------7----------------------------------|
|--6-6---7----------------------------------|
|--4-4-5-5----------------------------------|
|-------------------------------------------|

Verse

|-------------------------------------------|
|--------7--------------9-------------------|
|------7---7----------9---9-----------------|    Bis
|----7-------7------9-------9---------------| 
|--5-----------5--7-----------7-------------|
|-------------------------------------------|
[ Tab from: http://www.guitartabs.cc/tabs/n/nirvana/seasons_in_the_sun_tab_ver_5.html ]
|-----------------------------------------------------------------------|
|--------7--------------9--------------2--------------7-----------------|
|------7---7----------9---9----------2---2----------7---7---------------|   
|----7-------7------9-------9------2-------2------7-------7---7---------| 
|--5-----------5--7-----------7--0-----------0--5-----------5-5---------|
|-----------------------------------------------------------------------|

Chorus

|---------------------------------|
|--7---9---2----------------------|
|--7---9---2----------------------|    
|--7---9---2----------------------| 
|--5---7---0---4-0-2-4-5----------|
|---------------------------------|

Outro

|-----------------------------------------------------------------------|
|--------8----------------10----------------3---------------------------|
|------8---8-----------10----10-----------3---3-------------------------|   
|----8-------8------10----------10------3-------3-----------------------| 
|--6-----------6--8----------------8--1-----------1---5-1-3-5-6---------|
|-----------------------------------------------------------------------|

Ending

|-------------|
|--7--8-------|
|--7--8-------|    
|--7--8-------| 
|--5--6-------|
|-------------|


TOTAL NIRVANA!

E-mail me to Cachi_00@yahoo.es