Nirvana - Seasons In The Sun Chords & Tabs

 

Seasons In The Sun Chords & Tabs

Nirvana Chords & Tabs

Version: 1 Type: Tab 7 ratings
1 star 2 stars 3 stars 4 stars 5 stars
comments

Seasons In The Sun Tab

seasons in the sun
nirvana
album:with the lights out cd 4(dvd)
tabbed by marc-andré bouchard
bigmama22ade@hotmail.com

Intro:
eb|-------------------------------------------|
Bb|-----------7---------------------7---------|
Gb|-----------7---------------------7---------|
Db|-----------7---------------------7---------|
Ab|--4--4--5--5------------4--4--5--5---------|
Eb|-------------------------------------------|
[ Tab from: http://www.guitartabs.cc/tabs/n/nirvana/seasons_in_the_sun_tab.html ]
Verse: (x2)
eb|-------------------------------------------------------------------|
Bb|---------7--------------7---------------9----------------9---------|
Gb|------7----7----------7----7----------9----9----------9----9-------|
Db|----7--------7------7--------7------9--------9------9--------9-----|
Ab|--5---------------5---------------7---------------7----------------|
Eb|-------------------------------------------------------------------|

R.I.P kurt cobain
Comments