Nirvana - Scentless Apprentice Chords & Tabs

 

Scentless Apprentice Chords & Tabs

Nirvana Chords & Tabs

Version: 2 Type: Tab 1 rating
1 star 2 stars 3 stars 4 stars 5 stars
comments

Scentless Apprentice Tab

Ok, this tab is NOT accurate, it just sounds exactly the same and it is a quick
fun riff to jam along with. (Also fun with a drummer too).
[ Tab from: http://www.guitartabs.cc/tabs/n/nirvana/scentless_apprentice_tab_ver_2.html ]
Standard tuning in drop D, Normal distortion.
                                       
e[--------------------------------------9^\10^\ect.^>->->--|-
B[---------------------------------------------------------|-
G[---------------------------------------------------------|-   Repeat three times
D[---------------------------------------------------------|-  
A[---------------------------------------------------------|-
D[---------------------------------------------------------|-


e[-------------------------|-
B[-------------------------|-
G[-------------------------|-   Repeat as desired
D[--4-4-0-4-0-4-4-4-4-0-4--|-
A[--4-4-0-4-0-4-4-4-4-0-4--|-
D[--4-4-0-4-0-4-4-4-4-0-4--|-


e[-------------------------|-
B[-12^---------------------|-
G[-10^---------------------|-
D[-------------------------|-
A[-------------------------|-
D[-------------------------|-

Then back to the 4-4-0-4-0-4-4-4-4-0-4, repeat as desired, than do some random distorted solo
and smash up your guitar and then make a grunge scene!
Comments