Nirvana - Rape Me Chords & Tabs

 

Rape Me Chords & Tabs

Nirvana Chords & Tabs

Version: 11 Type: Tab 0 ratings
1 star 2 stars 3 stars 4 stars 5 stars
comments

Rape Me Tab

RAPE me full version

e----------|-------------------|---0--0---|---0-0-3-3-3-3--0-|
a---0--0---|---0-0-3-3-3-3--0--|---2--2---|---0-0-5-5-5-5--0-|
d---2--2---|---0-0-5-5-5-5--0--|---2--2---|---0-0-5-5-5-5--0-|
g---2--2---|---0-0-5-5-5-5--0--|----------|------------------|
b----------|-------------------|----------|------------------|
e----------|-------------------|----------|------------------|


e----------|-------------------|---0--0---|---0-0-3-3-3-3--0-|
a---0--0---|---0-0-3-3-3-3--0--|---2--2---|---0-0-5-5-5-5--0-|
d---2--2---|---0-0-5-5-5-5--0--|---2--2---|---0-0-5-5-5-5--0-|
g---2--2---|---0-0-5-5-5-5--0--|----------|------------------|
b----------|-------------------|----------|------------------|
e----------|-------------------|----------|------------------|


e----------|---------|---0------|--0^3----|
a---0------|--0^3----|----2-----|-----5-5-|
d----2-----|-----5-5-|-----2----|------5--|
g-----2----|------5--|----------|---------|
b----------|---------|----------|---------|
e----------|---------|----------|---------|

  rape mé

e----------|---------|---0------|--0^3----|
a---0------|--0^3----|----2-----|-----5-5-|
d----2-----|-----5-5-|-----2----|------5--|
g-----2----|------5--|----------|---------|
b----------|---------|----------|---------|
e----------|---------|----------|---------|

 rapé me__________my friend

e----------|---------|---0------|--0^3----|
a---0------|--0^3----|----2-----|-----5-5-|
d----2-----|-----5-5-|-----2----|------5--|
g-----2----|------5--|----------|---------|
b----------|---------|----------|---------|
e----------|---------|----------|---------|

  rape mé

e----------|---------|---0------|--0^3----|
a---0-0----|--0^3----|----2-----|-----5-5-|
d---2-2----|-----5-5-|-----2----|------5--|
g---2-2----|------5--|----------|---------|
b----------|---------|----------|---------|
e----------|---------|----------|---------|

  rapé me__________Again

e----------|-------------------|---0--0---|---0-0-3-3-3-3--0-|
a---0--0---|---0-0-3-3-3-3--0--|---2--2---|---0-0-5-5-5-5--0-|
d---2--2---|---0-0-5-5-5-5--0--|---2--2---|---0-0-5-5-5-5--0-|
g---2--2---|---0-0-5-5-5-5--0--|----------|------------------|
b----------|-------------------|----------|------------------|
e----------|-------------------|----------|------------------|

  I'm not the only one, naa 4X Heavy distortion

e----------|-------------------|---0--0---|---0-0-3-3-3-3--0-|
a---0--0---|---0-0-3-3-3-3--0--|---2--2---|---0-0-5-5-5-5--0-|
d---2--2---|---0-0-5-5-5-5--0--|---2--2---|---0-0-5-5-5-5--0-|
g---2--2---|---0-0-5-5-5-5--0--|----------|------------------|
b----------|-------------------|----------|------------------|
e----------|-------------------|----------|------------------|

  hate me

e----------|-------------------|---0--0---|---0-0-3-3-3-3--0-|
a---0--0---|---0-0-3-3-3-3--0--|---2--2---|---0-0-5-5-5-5--0-|
d---2--2---|---0-0-5-5-5-5--0--|---2--2---|---0-0-5-5-5-5--0-|
g---2--2---|---0-0-5-5-5-5--0--|----------|------------------|
b----------|-------------------|----------|------------------|
e----------|-------------------|----------|------------------|

  do it and do it again

e----------|-------------------|---0--0---|---0-0-3-3-3-3--0-|
a---0--0---|---0-0-3-3-3-3--0--|---2--2---|---0-0-5-5-5-5--0-|
d---2--2---|---0-0-5-5-5-5--0--|---2--2---|---0-0-5-5-5-5--0-|
g---2--2---|---0-0-5-5-5-5--0--|----------|------------------|
b----------|-------------------|----------|------------------|
e----------|-------------------|----------|------------------|

  waste me

e----------|-------------------|---0--0---|---0-0-3-3-3-3--0-|
a---0--0---|---0-0-3-3-3-3--0--|---2--2---|---0-0-5-5-5-5--0-|
d---2--2---|---0-0-5-5-5-5--0--|---2--2---|---0-0-5-5-5-5--0-|
g---2--2---|---0-0-5-5-5-5--0--|----------|------------------|
b----------|-------------------|----------|------------------|
e----------|-------------------|----------|------------------|

  Rape me my friend

e----------|-------------------|---0--0---|---0-0-3-3-3-3--0-|
a---0--0---|---0-0-3-3-3-3--0--|---2--2---|---0-0-5-5-5-5--0-|
d---2--2---|---0-0-5-5-5-5--0--|---2--2---|---0-0-5-5-5-5--0-|
g---2--2---|---0-0-5-5-5-5--0--|----------|------------------|
b----------|-------------------|----------|------------------|
e----------|-------------------|----------|------------------|
[ Tab from: http://www.guitartabs.cc/tabs/n/nirvana/rape_me_tab_ver_11.html ]
  Im not the only one, naa 4X heavy distortion

e----------|----------|-----------|---3-3-1-0-0---|
a---4444---|---4444---|---0-0-0---|---5-5-3-2-2---|
d---6666---|---6666---|---2-2-2---|---5-5-3-2-2---|
g---6666---|---6666---|---2-2-2---|---------------|
b----------|----------|-----------|---------------|
e----------|----------|-----------|---------------|

  My favourite inside is so course

e----------|----------|-----------|---3-3-1-0-0---|
a---4444---|---4444---|---0-0-0---|---5-5-3-2-2---|
d---6666---|---6666---|---2-2-2---|---5-5-3-2-2---|
g---6666---|---6666---|---2-2-2---|---------------|
b----------|----------|-----------|---------------|
e----------|----------|-----------|---------------|

  I guess you dont consort

e----------|----------|-----------|---3-3-1-0-0---|
a---4444---|---4444---|---0-0-0---|---5-5-3-2-2---|
d---6666---|---6666---|---2-2-2---|---5-5-3-2-2---|
g---6666---|---6666---|---2-2-2---|---------------|
b----------|----------|-----------|---------------|
e----------|----------|-----------|---------------|

  I apreciate your concern

e----------|----------|-----------|---3-3-1-0-0---|
a---4444---|---4444---|---0-0-0---|---5-5-3-2-2---|
d---6666---|---6666---|---2-2-2---|---5-5-3-2-2---|
g---6666---|---6666---|---2-2-2---|---------------|
b----------|----------|-----------|---------------|
e----------|----------|-----------|---------------|

  i think it stinks and burn
                               let it ring
e---11111111---|---33333333---|---0---|
a---33333333---|---55555555---|---2---|
d---33333333---|---55555555---|---2---|
g--------------|--------------|-------|
b--------------|--------------|-------|
e--------------|--------------|-------|


e----------|-------------------|---0--0---|---0-0-3-3-3-3--0-|
a---0--0---|---0-0-3-3-3-3--0--|---2--2---|---0-0-5-5-5-5--0-|
d---2--2---|---0-0-5-5-5-5--0--|---2--2---|---0-0-5-5-5-5--0-|
g---2--2---|---0-0-5-5-5-5--0--|----------|------------------|
b----------|-------------------|----------|------------------|
e----------|-------------------|----------|------------------|

  Rape me

e----------|-------------------|---0--0---|---0-0-3-3-3-3--0-|
a---0--0---|---0-0-3-3-3-3--0--|---2--2---|---0-0-5-5-5-5--0-|
d---2--2---|---0-0-5-5-5-5--0--|---2--2---|---0-0-5-5-5-5--0-|
g---2--2---|---0-0-5-5-5-5--0--|----------|------------------|
b----------|-------------------|----------|------------------|
e----------|-------------------|----------|------------------|

  rape me my friend

e----------|-------------------|---0--0---|---0-0-3-3-3-3--0-|
a---0--0---|---0-0-3-3-3-3--0--|---2--2---|---0-0-5-5-5-5--0-|
d---2--2---|---0-0-5-5-5-5--0--|---2--2---|---0-0-5-5-5-5--0-|
g---2--2---|---0-0-5-5-5-5--0--|----------|------------------|
b----------|-------------------|----------|------------------|
e----------|-------------------|----------|------------------|

  Rape me

e----------|-------------------|---0--0---|---0-0-3-3-3-3--0-|
a---0--0---|---0-0-3-3-3-3--0--|---2--2---|---0-0-5-5-5-5--0-|
d---2--2---|---0-0-5-5-5-5--0--|---2--2---|---0-0-5-5-5-5--0-|
g---2--2---|---0-0-5-5-5-5--0--|----------|------------------|
b----------|-------------------|----------|------------------|
e----------|-------------------|----------|------------------|

  rape me again

e----------|-------------------|---0--0---|---0-0-3-3-3-3--0-|
a---0--0---|---0-0-3-3-3-3--0--|---2--2---|---0-0-5-5-5-5--0-|
d---2--2---|---0-0-5-5-5-5--0--|---2--2---|---0-0-5-5-5-5--0-|
g---2--2---|---0-0-5-5-5-5--0--|----------|------------------|
b----------|-------------------|----------|------------------|
e----------|-------------------|----------|------------------|

  Im not the only one, naa 4X heavy distortion

e----------|-------------------|---0--0---|---0-0-3-3-3-3--0-|
a---0--0---|---0-0-3-3-3-3--0--|---2--2---|---0-0-5-5-5-5--0-|
d---2--2---|---0-0-5-5-5-5--0--|---2--2---|---0-0-5-5-5-5--0-|
g---2--2---|---0-0-5-5-5-5--0--|----------|------------------|
b----------|-------------------|----------|------------------|
e----------|-------------------|----------|------------------|

 Rape me 9X still heavy distortion

I hope it is good If it is not.... wel too bad I Did My Best
So if it is not try to rebild this whole exausting page ;)


well anyway greetings from the Netherlands

Caran van Gils tot ziens
Comments