Nirvana - Rape Me Chords & Tabs

 

Rape Me Chords & Tabs

Nirvana Chords & Tabs

Version: 5 Type: Bass Tab

Rape Me Bass Tab

Song : Rape me
Band : Nirvana
Album : In utero

Sir Bobbo: pissbottleman@gmail.com

Riff 1
G|-------------------------|
D|-------------------------|
A|-0--0---3-3--------------|
E|------------0--0---3-3---| 

Riff 2
G|---2------5----------------------|
D|-----------------2------5--------|
A|-0---0--3---3--------------------|
E|---------------0---0--3---3------| 
[ Tab from: http://www.guitartabs.cc/tabs/n/nirvana/rape_me_btab_ver_5.html ]
Riff 3 
G|-----------------------------------------|
D|-----------------------------------------|
A|-0-0-0-0--3-3-3-3------------------------|
E|-------------------0-0-0-0--3-3-3-3------| 
                                        
Riff 4 
G|----------------------------------|   
D|----------------------------------|
A|-4-4-4-4-4-4-4-0-0-0-0------------|
E|-----------------------3-2-1-0----| 

Riff 5
G|---------------|
D|---------------|
A|---------------|
E|-1---3---0~----|                                                    
 
Riff 6                                                           
G|-----------------------------------------------------|        
D|-----------------------------------------------------|        
A|-0-0-0-0-3-3-3-3-------------------------------------|        
E|-----------------0-0-0-0-3-3-3-3---------------------|
   
Riff 7 
G|-------|
D|-------|
A|---0~--|
E|-------| 

And the order is : 
Riff 1x2
Riff 2x4
Riff 3x4
Riff 1x4
Riff 3x4
Riff 4x4
Riff 5x1
Riff 1x4
Riff 3x4
Riff 6x6
Riff 7x1

Enjoy it !!
Please rate this tab !!Thanks!!