Nirvana - Rape Me Chords & Tabs

 

Rape Me Chords & Tabs

Nirvana Chords & Tabs

Version: 2 Type: Bass Tab 0 ratings
1 star 2 stars 3 stars 4 stars 5 stars
comments

Rape Me Bass Tab

Rape Me

Chorus (Part 1)  (the 17 fret slide is a pickup into the 1st chorus measure)
----------|----------------------------------------------------------------------
----------|--------------------------------------------------------------5---5---
----17\-- |----------3-3-5-5----------------------------3-3-5-5/7--7-7-----7---7-
----------|--5--5-5----------0--0-0--3-3-3-0--5--5-5-----------------------------
             1  2 +  3 + 4 + 1  2 +  3 + 4 +  1  2 +    3 + 4 +  1 2 +   3 + 4 +
[ Tab from: http://www.guitartabs.cc/tabs/n/nirvana/rape_me_btab_ver_2.html ]
Bridge (part 2)                           4x               (after last time)
---------------------------------|--------------------------------------------
---------------2-----------------|--------------------------------------------
--4--4-4-4-2-4----0--0-0---------|--------------------------------------------
--------------------------3-2-1-0|--1-1-1-1-1-1-1-1/3-3-3-3-3-3-3-3/12~~~~~~~~
  1  2 + 3 + 4 +  1  2 +  3 + 4 +    

Last part where he's shouting (part 3)     play 4x    and end with:
---------------------------------------------------------------------------
-------------------------5------------------------------------------------
---------3-3-5-5-----------------------------------------------------------
-5--5-5-----------0-0-0---3-3-3-0------------------------------5~~~~~~~~~~~
 1  2 +  3 + 4 +  1 2 a  3e + 4 +

Okay, here it is.  Bass comes in with part 1 during the first chorus,
it plays through the 2nd verse, then the 2nd chorus, then switch to 
the bridge.  After the bridge, rest during the last verse, 
and come in on the last chorus and have fun.
Comments