Nirvana - Polly Chords & Tabs

 

Polly Chords & Tabs

Nirvana Chords & Tabs

Version: 9 Type: Tab 0 ratings
1 star 2 stars 3 stars 4 stars 5 stars
comments

Polly Tab

this is only some of the song.
Regular tunning.

I know u dont care but this is one of my 
favorite songs by Kurt,hes the man


X=Rest finger on the top and play
/=Slide
ho=Hold


INTRO   do about 6 times
|----------------------------|
|----------------------------|
|----------------------------|
|--------------7-7--5-5-5-x--|
|3-x-x-5-5-x-x-5-5--3-3-3-x--|
|1-x-x-3-3-x-x---------------|

Do 8 times
|----------------------------|
|----------------------------|
|----------------------------|
|7-7-7--5-5------------------|
|5-5-5--3-3--3-3-3--5-5------|
|------------1-1-1--3-3------|

do 6 times
|----------------------------|
|----------------------------|
|----------------------------|
|--------------7-7--5-5-5-x--|
|3-x-x-5-5-x-x-5-5--3-3-3-x--|
|1-x-x-3-3-x-x---------------|
[ Tab from: http://www.guitartabs.cc/tabs/n/nirvana/polly_tab_ver_9.html ]
Do 7 times
|----------------------------|
|----------------------------|
|----------------------------|
|7-7-7--5-5------------------|
|5-5-5--3-3--3-3-3--5-5------|
|------------1-1-1--3-3------|


|----------------------------|
|----------------------------|
|----------------------------|
|----------------------------|
|-------/-5-/7---------------|
|1-/-3-/---------------------|

Do 7 times
|----------------------------|
|----------------------------|
|----------------------------|
|7-7-7--5-5------------------|
|5-5-5--3-3--3-3-3--5-5------|
|------------1-1-1--3-3------|

do 6 times
|----------------------------|
|----------------------------|
|----------------------------|
|--------------7-7--5-5-5ho--|
|3-x-x-5-5-x-x-5-5--3-3-3ho--|
|1-x-x-3-3-x-x---------------|

This is the hole song, well, its how i play it anyway, hope u enjoy.
Comments