Nirvana - Polly Chords & Tabs

 

Polly Chords & Tabs

Nirvana Chords & Tabs

Version: 3 Type: Tab 1 rating
1 star 2 stars 3 stars 4 stars 5 stars
comments

Polly Tab

Song--"Polly" 
Album--Nevermind
Band--Nirvana
transcribed by nehemiah james (lightning_rider69@yahoo.com).
Thanks to others who made the initial posts.
.

**Key**

**Tuning**  Standard (EADGBE)



intro/main line     
E|---------------------------------------------------------|
B|---------------------------------------------------------|
G|-------------7-7-7--5--5-5-5-----------------------------|
D|-2-2-2-5-5-5-7-7-7--5--5-5-5-----------------------------|
A|-2-2-2-5-5-5-5-5-5--3--3-3-3-----------------------------|
E|-0-0-0-3-3-3---------------------------------------------|

[ Tab from: http://www.guitartabs.cc/tabs/n/nirvana/polly_tab_ver_3.html ]
chorus 
E|-----------------------------------------------------------|
B|-----------------------------------------------------------|
G|--7-7-7--5-5-5---------------------------------------------|
D|--7-7-7--5-5-5--5-5-5--8-8-8-------------------------------|
A|--5-5-5--3-3-3--5-5-5--8-8-8-------------------------------|
E|----------------3-3-3--6-6-6-------------------------------|

interlude
E|-----------------------------------------------------------|
B|-----------------------------------------------------------|
G|------------------0-0-0------------------------------------|
D|-----------------------------------------------------------|
A|---------------------------3-3-3---------------------------|
E|-0------3-3-3----------------------------------------------|

All the parts are there just listen to the song to work it out.




Comments