Nirvana - Polly Chords & Tabs

 

Polly Chords & Tabs

Nirvana Chords & Tabs

Version: 1 Type: Tab 5 ratings
1 star 2 stars 3 stars 4 stars 5 stars
comments

Polly Tab

Nirvana - Polly (Tabbed by Daz@musician.net)

This track uses nothing but Power Chords & Left Hand Muting. Got any questions or comments
then e-mail me. Daz :o)

Intro:
[ Tab from: http://www.guitartabs.cc/tabs/n/nirvana/polly_tab.html ]
|--------------------------------------------------------------------------------|
|--------------------------------------------------------------------------------|
|---------------------7-7--x--5--5-5--------------------------7-7--x--5--5-5-----| Repeat x 2 
|-2--x--2--5-5--x-----7-7--x--5--5-5------2--x--2--5-5--x-----7-7--x--5--5-5-----| Then Play 
|-2--x--2--5-5--x-----5-5--x--3--3-3-/-2--2--x--2--5-5--x-----5-5--x--3--3-3-/-2-| Through Verses
|-0--x--0--3-3--x--0----------------------0--x--0--3-3--x--0---------------------|


Chorus:

|--------------------------------------------------------------------------------|
|--------------------------------------------------------------------------------|
|-7--x--5--5-5--------------3--3-3-3--------7--x--5--5-5--------------3--3-3-3---| Repeat x 4
|-7--x--5--5-5------5-5--x--3--3-3-3--------7--x--5--5-5------5-5--x--3--3-3-3---|
|-5--x--3--3-3-/-2--5-5--x--1--1-1-0--3-/-5-5--x--3--3-3-/-2--5-5--x--1--1-1-0---|
|-------------------3-3--x------------------------------------3-3--x-------------|

Nothing much to it. This TAB isn't 100% but it does give you some idea of how the 
notes are played.
Comments