Nirvana - Polly Chords & Tabs

 

Polly Chords & Tabs

Nirvana Chords & Tabs

Version: 6 Type: Bass Tab 0 ratings
1 star 2 stars 3 stars 4 stars 5 stars
comments

Polly Bass Tab

Polly bass tab
by Nirvana

tabbed by Carson

Tuning: standard


(This is a really simple song, but it is also very fun to play.)

/ = slide up
* = let note ring

Note: There is no bass for six measures... Listen to the song first.


CHORUS
G----------------------------------------------------------------
D----------------------------------------------------------------
A-----5-5---3-3-3----------1-1-1-1---------------------------
E---------------------3-3---------------------------------------
[ Tab from: http://www.guitartabs.cc/tabs/n/nirvana/polly_btab_ver_6.html ]
VERSE
G----------------------------------------------------------------
D----------------------------------------------------------------
A-------------------5-5---3-3-3-0------------------------------
E--0--0-3-3-2/4------------------------------------------------

ENDING
G----------------------------------------------------------------
D----------------------------------------------------------------
A----------------------------------------------------------------
E-0*---------------------------------------------------------------


That's it! I told you it was easy!


ORDER:

Rest for 6 measures
Chorus x8
Verse x6
Chorus x8
Verse x6 (first two are bass solo)
Chorus x8
Ending x1
Comments