Nirvana - Polly Chords & Tabs

 

Polly Chords & Tabs

Nirvana Chords & Tabs

Version: 3 Type: Bass Tab 0 ratings
1 star 2 stars 3 stars 4 stars 5 stars
comments

Polly Bass Tab

From: "Brian Kennedy" 

"Polly" by Nirvana from Nevermind

Here is the correct version of the song...

The bass comes in after 2 measures of guitar.
[ Tab from: http://www.guitartabs.cc/tabs/n/nirvana/polly_btab_ver_3.html ]
Verses
------------------------------------------
------------------------------------------
-------------------^--5--5----3----3--3--2
--0----0--3--3---2/3----------------------

Chorus
-------------------------------------------
-------------------------------------------
--5--5----3----3--3--2---------1----1--1--0
------------------------3--3---------------

Comments