Nirvana - Plateau Unplugged Chords & Tabs

 

Plateau Unplugged Chords & Tabs

Nirvana Chords & Tabs

Version: 1 Type: Tab 5 ratings
1 star 2 stars 3 stars 4 stars 5 stars
comments

Plateau Unplugged Tab

Ok here it is! It is so incredibly easy!!!

           (intro\verse)

---2----5----2----5----2----5----0-|
-----------------------------------|
-----------------------------------|    
-----------------------------------|
-----------------------------------|
---2----5----2----5----2----5----0-|

(pre-chorus)

---3-------------------------------|
-----------------------------------|
-----------------------------------|
-----------------------------------|
-----------------------------------|
---3-------------------------------|

(chorus)
[ Tab from: http://www.guitartabs.cc/tabs/n/nirvana/plateau_unplugged_tab.html ]
-2-2-2-2-2----5-5--0------2-2-2-2-2-2---5------2-2-2-2-2---5-5-0--|
------------------------------------------------------------------|
------------------------------------------------------------------|
------------------------------------------------------------------|
------------------------------------------------------------------|
-2-2-2-2-2----5-5--0------2-2-2-2-2-2---5------2-2-2-2-2---5-5-0--|



-2-2-2-2-2----5-5--0------|
--------------------------|
--------------------------|
--------------------------|
--------------------------|
-2-2-2-2-2----5-5--0------|



Structure:
Into
Verse 
Chorus
Intro
Verse
Chorus
Make your own fancy ending! (thats the best part about it!)


            Well i gtg!   Bye! -----Homer











Comments