Nirvana - Plateau Chords & Tabs

 

Plateau Chords & Tabs

Nirvana Chords & Tabs

Version: 2 Type: Bass Tab 0 ratings
1 star 2 stars 3 stars 4 stars 5 stars
comments

Plateau Bass Tab

Nirvana
 Plateau
   
Intro/Verse (listen to song a lot to get timing)
G:--------------------------------------------|
D:--------------------------------------------|
A:--7-7---10-10---7-7---10-10---7-7---10-10---|
E:------------------------------------------0-|

Pre-Chorus 1
G:--------|
D:--------|  x1
A:--------|
E:--5/--0-|
[ Tab from: http://www.guitartabs.cc/tabs/n/nirvana/plateau_btab_ver_2.html ]
Chorus
G:----------------------------------------|
D:--------------------------------------9-|
A:------------5--7--8----------5--7--66---|
E:--0-0-x-5-5----------0-0-x-5------------|

Outro
G:---------------------|
D:---------------------| X 1
A:--5------------------|
E:----3--5--0---5/---0-|

G:-------------------|
D:-------------------|
A:----------5--------|   Play for rest of song
E:-0--0--3-----3-4-5-|
Comments