Nirvana - Pennyroyal Tea Chords & Tabs

 

Pennyroyal Tea Chords & Tabs

Nirvana Chords & Tabs

Version: 1 Type: Tab 2 ratings
1 star 2 stars 3 stars 4 stars 5 stars
comments

Pennyroyal Tea Tab

Pennyroyal Tea
Tune Down 1/2 a step 
intro
e--0------0---0-----0----------0---0--0----------3---3----3-----3------------
b--1------1---1-----1---1------1---1--1--0-------0---0----0-----0------------
g--2------2---2--2--2---2------2---2--2--0-------------------------0---------
d--2---2---------2------2--2----------2--0----0---------0-----0----0---------   
a--0--------------------0----------------0--------------------2-----------)--
e--------------------------------------------3----------------3------3-2-3-0-

e----------------------------------------------------------------------------
b--------2----------------------------0--------0-----------------------------
g--------2------2-----------2---2--2--0--------0--------0---0----------------
d--2--2---------2--------2--2---2--2--0-----------0-----0---0----0-----------
a--0---------0-----0--0--------------------------------------------------)---
e----------------------------------------3--3--------3-----3---3----3-2-3-0--
 verse
e--------------------------------------------3-------------------------------
b--------------------------------------------0---0---------------------------
g----------------------2-----2----0--------------0------0--------------------
d--2---2-2----2-----2-----2----2----------0--------0----0--------------------
a--0--------0---0---------0-------------------------------------------)------
e--------------------------------------3-------------3------x--x--2--3--0----

e--------------------------------------------3-----3-------------------------            
b-----------------------------------0--------0-----0-------------0-0---------
g--------2----2-----------2----2----0--------0-----0-------------0-0---------
d--2--2----------2--2--2----------2-----0--0----0------0-0-0-0-0-0-----------
a--0-------0-----0--0-------0-----0-----x-------x------x-x-x-x-x-x-----------
e---------------------------------------3-------3------3-3-3-3-3-3-----------
 chorus
e----------------------------------------------------------------------------
b--5---5--5---5--5--0--7---7--7---7--7--0--------------------------------0---
g--5---5--5---5--5--0--7---7--7---7--7--0--------------------------------0---
d--5---5--5---5--5-----7---7--7---7--7-------8--8-8--8-8--8--8--8--8--8------
a--3---3--3---3--3-----5---5--5---5--5-------8--8-8--8-8--8--8--8--8--8------
e--------------------------------------------6--6-6--6-6--6--6--6--6--6------  

e----------------------------------------------------------------------------
b--5---5--5----5--5--0---7---7--7---7--7-----------------------------------0-
g--5---5--5----5--5--0---7---7--7---7--7--0--------------------------------0-
d--5---5--5----5--5--0---7---7--7---7--7------8--8--8--8--8-8--8-8--8-8--8---
a--3---3--3-------3------5---5--5---5--5------8--8--8--8--8-8--8-8--8-8--8---
e------------3--------------------------------6--6--6--6--6-6--6-6--6-6--6---       

e----------------------------------------------------------------------------
b--5---5--5----5--5--0--7--7--7--7---7--7--0-------------------------------0-
g--5---5--5----5--5--0--7--7--7--7---7--7--0-------------------------------0-
d--5---5--5----5--5--0--7--7--7--7---7--7------8--8-8--8-8-8-8-8-8-8-8-8-8---
a--3---3--3-------3-----5--5--5--5---5--5------8--8-8--8-8-8-8-8-8-8-8-8-8---
e------------3---------------------------------6--6-6--6-6-6-6-6-6-6-6-6-6---
[ Tab from: http://www.guitartabs.cc/tabs/n/nirvana/pennyroyal_tea_tab.html ]
e----------------------------------------------------------------------------
b--5---5--5---5--5--0--7---7--7---7--7--0------------------------------------
g--5---5--5---5--5--0--7---7--7---7--7--0------------------------------------
d--5---5--5---5--5-----7---7--7---7--7------8--8--8---8--8-8-8-8-8-8-8-8-8---
a--3---3--3---3--3-----5---5--5---5--5------8--8--8---8--8-8-8-8-8-8-8-8-8---
e-------------------------------------------6--6--6-6----6-6-6-6-6-6-6-6-6-0-
 2nd verse
e---------------------------------------------3------------------------------
b--------x----1----------1-------1------------0--0---------------------------
g--------2----2----------2-------2---------------0----------0----------------
d-----2---------------2-------------------------------------0----------------
a--0-------0----0--0-------0--0----0----------------2------------------------                 
e---------------------------------------3--3----------3--3-----3--2--3--0----

e-------------------------------------------3--------------------------------
b--------2-----------------2------------0---0--------------0-0-0-0-0-0-------
g--------2-------2---------2------2-----0---0----0-----0-0-0-0-0-0-0-0-------
d--2--2--------2----2--2----------2-----0--------0-----0-0-0-0-0-0-0-0-------
a--0--------0-------0--0------0------------------------x-x-x-x-x-x-x-x-------
e-----------------------------------0---3------3----3--3-3-3-3-3-3-3-3-------
 play chorus again and then 3rd verse
e----------------------------------------------------------------------------
b--2------2--------------2----------------------0----------------------------
g--2---2--------2-------------------------------0-----0------------0---------
d--2------------------2-----2------2^0--------------------------0------------
a--0---------0----0---0------------0---------2------------2---2---------0----
e-----------------------------------------3---------3---------3-------3-2-0--

e---------------------------------------------3---3--3--3--------------------
b----------2--------------------2---2-----0---0---0--0--0-----0-0-0-0-0-0-0--
g----------2------2-------------2---2-----0---0---0--0--0-----0-0-0-0-0-0-0--
d--2---2-------2-----2--2---2-------------0----------0--------0-0-0-0-0-0-0--
a--0-----------0-----0--0---0---------------------------------x-x-x-x-x-x-x--
e-------------------------------------0---3----------3-----3--3-3-3-3-3-3-3--
 outro
e------------------0--0------------------------------------------------------                    
b--------0-----0---1--1--1-----1-----1-----1-------1-------------1-----1-----   
g--------2-----2---2-----2-----2-----2-----2-------2----------2--2-----2-----   
d-----2-----2------------------------2---2------2---------2---2------2----2--
a--0-------------------------0---0---0----------------0---0------------------                                 
e----------------------------------------------------------------------------        

e----------------------------------------------------------------------------
b--------1-------------------------------------------------------------------
g---------------2------------------------------------------------------------
d-----2------2-----2---------------------------------------------------------
a--0-----------------0-------------------------------------------------------
e----------------------------------------------------------------------------
Comments