Nirvana - Pen Cap Chew Chords & Tabs

 

Pen Cap Chew Chords & Tabs

Nirvana Chords & Tabs

Version: 3 Type: Tab 0 ratings
1 star 2 stars 3 stars 4 stars 5 stars
comments

Pen Cap Chew Tab

   
Nirvana- Pen Cap Chew
Can be found on Outcesticide Vol. 1- In memory of Kurt of Kurt Cobain.
s- slide to next chord
^- bend whole chord.
[ Tab from: http://www.guitartabs.cc/tabs/n/nirvana/pen_cap_chew_tab_ver_3.html ]
    A5             C5
e|---------------------|
b|---------------------|   
g|---------------------|
d|--7--7--7--7--s--10--|
a|--7--7--7--7--s--10--|
e|--5--5--5--5--s---8--| 
                    ^
Play this three times then play the following once:
    A5             D5
e|---------------------|
b|---------------------|
g|---------------------|
d|--7--7--7--7--s--12--|
a|--7--7--7--7--s--12--|
e|--5--5--5--5--s--10--|
                    ^

Verse/Chorus:

    A5          C5
e|------------------|
b|------------------|   
g|------------------|
d|--7--7--7--7--10--|
a|--7--7--7--7--10--|
e|--5--5--5--5---8--| 

Just repeat this until end of chorus.

Any questions/comments? email me at the_legend_kurt@hotmail.com
Comments