Nirvana - Opinion Chords & Tabs

 

Opinion Chords & Tabs

Nirvana Chords & Tabs

Version: 6 Type: Tab 0 ratings
1 star 2 stars 3 stars 4 stars 5 stars
comments

Opinion Tab

   
Opinion
Kurt Cobain


Intro and whole song

Bb F# C# F

Solo
using some wierd affect
E|-----------------------------------|
B|-3~--------------------------------|
G|-3~--------------------------------|
D|-3~---------------------3^~~~~-----|
A|-1~--------------------------------|
E|-----------------------------------|
[ Tab from: http://www.guitartabs.cc/tabs/n/nirvana/opinion_tab_ver_6.html ]
E|------------------------|x2
B|------------------------|
G|------------------------|
D|-33333333-66666666------|
A|---------4--------------|
E|------------------------|

pm|-----------------------|

E|------------------------|
B|------------------------|
G|------------------------|
D|-33333333-66686866------|
A|---------4--------------|
E|------------------------|

pm|-----------------------|

E|------------------------|
B|------------------------|
G|-----------------8^-12~-|
D|-3333----66668888-------|
A|-----4444---------------|
E|------------------------|

pm|-----------------------|

The best nirvana song by far.
Comments