Nirvana - Opinion Heavy Version Chords & Tabs

 

Opinion Heavy Version Chords & Tabs

Nirvana Chords & Tabs

Version: 1 Type: Tab 1 rating
1 star 2 stars 3 stars 4 stars 5 stars
comments

Opinion Heavy Version Tab

Nirvana
Opinion
Written By Kurt Cobain (1967-1994)


This is the "Heavy Version" of Opinion.


This part is the Verse and Chorus:

E||------|------|------|------|
B||------|------|-7----|------|
G||-4----|------|-7----|------| Repeat Many Times
D||-4----|-5----|-7----|-4----|
A||-2----|-5----|-5----|-4----|
E||------|-3----|------|-2----|


This is the Solo:

E|--------------------------------------------|
B|-----------------------4-6-6-6----4-6-6-6---|
G|-4-5-5-5----4-5-5-5-------------------------| Play This Twice
D|--------------------------------------------|
A|--------------------------------------------|
E|--------------------------------------------|

[ Tab from: http://www.guitartabs.cc/tabs/n/nirvana/opinion_heavy_version_tab.html ]
E|--------------------------------------------|
B|------------4-6-6-6---------------4-6-6-6---|
G|-4-5-5-5---------------4-5-5-5--------------| Then Play This Once
D|--------------------------------------------|
A|--------------------------------------------|
E|--------------------------------------------|

E|-----------|
B|-4-6-6-6---|
G|-----------| And Repeat this Twice
D|-----------| 
A|-----------|
E|-----------|


E||------|------|------|------|
B||------|------|-7----|------|
G||-4----|------|-7----|------| Repeat Many Times Until The End
D||-4----|-5----|-7----|-4----|
A||-2----|-5----|-5----|-4----|
E||------|-3----|------|-2----|


E-Mail Me At:
nikeman@optonline.net
For Any Comments
Comments