Nirvana - On A Plain Chords & Tabs

 

On A Plain Chords & Tabs

Nirvana Chords & Tabs

Version: 9 Type: Tab 0 ratings
1 star 2 stars 3 stars 4 stars 5 stars
comments

On A Plain Tab

   
Band/artist: Nirvana
Album: Nevermind
Song: On a plain (track 11)
Year: 1991
Guitarist: Kurt Cobain

Tuning: Drop D

INTRO:
e----------------------------------------------------------------------------|
b----------------------------------------------------------------------------|
g------------------------------16--------------------16----------------------|
d--15--------------------------15--------------------15----------------------|
a--14----------------------14------------------------14----------------------|
e--13---12-(13)-(12)-(13)---------12-(13)-(12)-(13)-----12-(13)-(12)-(13)-12-|

VERSE:
e---------------------------------------------------------------------|
b---------------------------------------------------------------------|
g--7--7------------------------------7--7-----------------------------|
d--7--7----5--5----------------------7--7-0--5--5---------------------|
a--5--5-0--5--5--0--3-3--0--2-3-2-0--5--5-0--5--5--0--3-3--0--2-3-2-0-|
e----------5--5--0--3-3--0--2-3-2-0----------3--3--0--3-3--0--2-3-2-0-|
[ Tab from: http://www.guitartabs.cc/tabs/n/nirvana/on_a_plain_tab_ver_9.html ]
e----------------------------------|
b----------------------------------|
g--7--7----5--5----4--4----2-2-2---|
d--7--7-0--5--5-0--4--4-0--2-2-2-0-|
a--5--5-0--3--3-0--2--2-0--0-0-0-0-|
e----------------------------------|

e-----------------------------------|
b-----------------------------------|
g--7--7-----------------------------|
d--7--7-0--5--5---------------------|
a--5--5-0--5--5--0--3-3--0--2-3-2-0-|
e----------3--3--0--3-3--0--2-3-2-0-|

CHORUS:
e------------------------------------------|
b------------------------------------------|
g--7--7-7--7-7-7-7-------------------------|
d--7--7-7--7-7-7-7-10-10-10-10-10-10-10-10-|
a--5--5-5--5-5-5-5--8--8--8--8--8--8--8--8-|
e----------5-5-5-5--8--8--8--8--8--8--8--8-|

BRIDGE:
e
b-------------------------------------------------------------------|
g----------------------------------2--2--2--2-2-2-------------------|
d----------------------------------2--2--2--2-2-2-------------------|
a--3--3--3--3-3-3--2--2--2-2-2-2---0--0--0--0-0-0---5-5-5-5-5-5-5-5-|
e--3--3--3--3-3-3--2--2--2-2-2-2--------------------5-5-5-5-5-5-5-5-|

Order of song:
Intro x1
Verse x2
Chorus x4
Verse x2
Chorus x4
Bridge x4
Verse x2
Chorus (until it fades)
Comments