Nirvana - Old Age Chords & Tabs

 

Old Age Chords & Tabs

Nirvana Chords & Tabs

Version: 3 Type: Tab 0 ratings
1 star 2 stars 3 stars 4 stars 5 stars
comments

Old Age Tab

-------------------------------------------------------------------------------
			     Old Age - Nirvana
-------------------------------------------------------------------------------
Tabbed by: Luy
Email: luyendyk97@yahoo.com

Tuning: Standard

Verse

e|---------------------------------------------------------------------------|
B|---------------------------------------------------------------------------|
G|-----------5-5-5-5-5-----------5-5-5-5-5-----------2-2-2-2-2-5-5-5-5-5-----|
D|-2-2-2-2-2-5-5-5-5-5-2-2-2-2-2-5-5-5-5-5-5-5-5-5-5-2-2-2-2-2-5-5-5-5-5-----|
A|-2-2-2-2-2-3-3-3-3-3-2-2-2-2-2-3-3-3-3-3-5-5-5-5-5-0-0-0-0-0-3-3-3-3-3-----|
E|-0-0-0-0-0-x-x-x-x-x-0-0-0-0-0-x-x-x-x-x-3-3-3-3-3-x-x-x-x-x-x-x-x-x-x-----|

Chorus
[ Tab from: http://www.guitartabs.cc/tabs/n/nirvana/old_age_tab_ver_3.html ]
e|---------------------------------------------------------------------------|
B|---------------------------------------------------------------------------|
G|-----------5-5-5-5-5-------------------------------------------------------|
D|-2-2-2-2-2-5-5-5-5-5-------------------------------------------------------|
A|-2-2-2-2-2-3-3-3-3-3-------------------------------------------------------|
E|-0-0-0-0-0-x-x-x-x-x-------------------------------------------------------|

Bridge

e|---------------------------------------------------------------------------|
B|---------------------------------------------------------------------------|
G|-4-4-4-4-4-4-4-4-4-4-5-5-5-5-5---------------------------------------------|
D|-4-4-4-4-4-4-4-4-4-4-5-5-5-5-5-5-5-5-5-5-5---------------------------------|
A|-2-2-2-2-2-2-2-2-2-2-3-3-3-3-3-5-5-5-5-5-5---------------------------------|
E|-x-x-x-x-x-x-x-x-x-x-x-x-x-x-x-3-3-3-3-3-3-three times---------------------|

e|---------------------------------------------------------------------------|
B|---------------------------------------------------------------------------|
G|-4-4-4-4-4-4-4-4-4-4-5-5-5-5-5---------------------------------------------|
D|-4-4-4-4-4-4-4-4-4-4-5-5-5-5-5-5-5-5-5-5-5-\-4-----------------------------|
A|-2-2-2-2-2-2-2-2-2-2-3-3-3-3-3-5-5-5-5-5-5-\-4-----------------------------|
E|-x-x-x-x-x-x-x-x-x-x-x-x-x-x-x-3-3-3-3-3-3-\-2-----------------------------|
Comments