Nirvana - Nevermind Album Chords & Tabs

 

Nevermind Album Chords & Tabs

Nirvana Chords & Tabs

Version: 2 Type: Tab 0 ratings
1 star 2 stars 3 stars 4 stars 5 stars
comments

Nevermind Album Tab

   
#----------------------------------PLEASE NOTE--------------------------------#
#This file is the author's own work and represents their interpretation of the#
#song. You may only use this file for private study, scholarship, or research.#
#-----------------------------------------------------------------------------#
#-- File created with Instab - http://www.pconline.com/~smcarey/instab.html --#
#-----------------------------------------------------------------------------#


Artist: Nirvana
Album: Nevermind
Tabbed Saverain
Date: October 13, 2008
Email: jeffpgarcia@yahoo.com

Songs:

Smells Like Teen Spirit
In Bloom
Come As You Are
Breed
Lithium
Polly
Territorial Pissing
Drain You
Lounge Act
Stay Away
On A Plain
Something In The Way

Legend:

/ = slide up
\ = slide down
p = pull off
h = hammer on
b = bend
r = release bend
m = mute
pm = palm mute
v = vibrato
(b) = Bass

 
SMELLS LIKE TEEN SPIRIT 
hint: strum the intro near the bridge.
Standard Tuning

-----------|-------------------------------------------------------------------
-----------|----------x-x-3-3--3-3-----------x-x-x-x----6-6-------------x-x-x-x
-----------|-2---2----x-x-3-3--3-3-0-----6-6-x-x-x-x-6--6-6-x-x-2---2-2-x-x-x-x
-----------|-3---3-3--x-x-3-3--3-3-0-6---6-6-x-x-x-x-6--6-6-x-x-3---3-3-x-x-x-x
-----------|-x---x-3--x-x-1-1--1-1---6---6-6-x-x-x-x-4--4-4-x-x-x---x-3-x-x-x-x
-----------|-1---1-1-----------------4---4-4--------------------1---1-1--------
   Intro  

--------------------------------------|
--3--3-3-------------x-x-x-x-6--6-----|
--3--3-3-0-----------x-x-x-x-6--6-----|
--3--3-3-0-----------x-x-x-x-6--6-----|
--1--1-1---6-6---6-6-x-x-x-x-4--4--3--|
-----------4-4---4-4---------------1--|
                                              

-----------|---------------------------------------------------|--|
-----------|---------x-x-x-x-3--3-------------x-x-x-x-6--6-----|--|
-----------|---------x-x-x-x-3--3-------------x-x-x-x-6--6-----|--|
-----------|-3---3-3-x-x-x-x-3--3-----6---6-6-x-x-x-x-6--6-----|--|
-----------|-3---3-3-x-x-x-x-1--1--6--6---6-6-x-x-x-x-4--4--3--|--|
-----------|-1---1-1---------------4--4---4-4---------------1--|--|
   Chorus Riff                                

-----------|---------------------------------------------------|
-----------|---------x-x-x-x-3--3-------------x-x-x-x-6--6-6-6-|
-----------|---------x-x-x-x-3--3-------------x-x-x-x-6--6-6-6-|
-----------|-3---3-3-x-x-x-x-3--3-----6---6-6-x-x-x-x-6--6-6-6-|
-----------|-3---3-3-x-x-x-x-1--1--6--6---6-6-x-x-x-x-4--4-4-4-|
-----------|-1---1-1---------------4--4---4-4------------------|
                 
                 
-----------|-----------------|--|----------|--|-----|-------|
-----------|---6-------------|--|-----6-6--|--|-0---|-------|
-----------|-5---------------|--|-5-5------|--|-0---|-------|
-----------|-----------------|--|----------|--|-0---|-------|
-----------|-----------------|--|----------|--|-0-0-|-------|
-----------|-----------------|--|----------|--|-0-0-|-------| 
   Verse                                            Chorus
 
-----------|-------------------------------------------|
-----------|-------------------------------------------|
-----------|---------------4b-------------3-3-3--------|
-----------|-3-3-2-3-3-4-4------3-3-2-3-3-3-3-3--6-6-6-|
-----------|-3-3-2-3-3-4-4------3-3-2-3-3-1-1-1--6-6-6-|
-----------|-1-1-0-1-1-2-2------1-1-0-1-1--------4-4-4-|
   Riff 2  

-----------|-----------------------------------------------------|--|
-----------|----4--6\-----4-4b5r4--2-1--2-1----------------------|--|
------5vvv-|-5---------1---------------------3--1--3-3b4r3--1----|--|
-----------|--------------------------------------------------5--|2x|
-----------|-----------------------------------------------------|--|
-----------|-----------------------------------------------------|--|
   Solo                                                                           

-----------|---------------------------|--|-----------|------|------|
-----------|---------------------------|--|-----------|------|------|
-----------|-1----1----1----1----------|--|-----------|------|------|
-----------|---5----5----5----5-5-3v---|4x|-vvvvvvvvv-|------|------|
-----------|---------------------------|--|-----------|------|------|
-----------|---------------------------|--|-----------|------|------|
           			                      Verse Chorus            

-----------|-------------------------------------|------------------|------|
-----------|--------3-3-3-3-3---------6-6-6-6-6--|------------------|------|
-----------|--------3-3-3-3-3---------6-6-6-6-6--|------------------|------|
-----------|-3---3--3-3-3-3-3--6---6--6-6-6-6-6--|------------------|-3----|
-----------|-3---3--1-1-1-1-1--6---6--4-4-4-4-4--|------------------|-3----|
-----------|-1---1-------------4---4-------------|------------------|-1----|
   Outro                                         "A Denial......"




IN BLOOM
Standard Tuning

-------|-----------------------------------------------------------------------
-------|-----3---------------------------------------------------3---3-3-------
-------|-3---3-3-------------------------------------------------3---3-3-------
-------|-3-----3-0-5---5-5-5-5-5-5-0-3---3-3-0-6---6-6-6-6-------3---3-3-0-5---
-------|-1-----1-0-5---5-5-5-5-5-5-0-3---3-3-0-6---6-6-6-6-------1---1-1-0-5---
-------|---------0-3---3-3-3-3-3-3-0-1---1-1-0-4---4-4-4-4-3-4-5---------0-3---
   Intro         

--------------------------------|
--------------------------------|
--------------------------------|
--5-5-5-5-5-5-0-3---3-3-0-6-----|
--5-5-5-5-5-5-0-3---3-3-0-6-----|
--3-3-3-3-3-3-0-1---1-1-0-4-----|
                                                                           

------------|---------------------------------------------------------|
------------|---------------------------------------------------------|
------------|-3-3-3-3-3-------------------7/8-8-8-x-x-4-4-4-4-2-2-2-2-|
------------|-3-3-3-3-3-x-x-4-4-4-4-4-x-x-7/8-8-8-x-x-4-4-4-4-2-2-2-2-|
------------|-1-1-1-1-1-x-x-4-4-4-4-4-x-x-5/6-6-6-x-x-2-2-2-2-0-0-0-0-|
------------|-----------x-x-2-2-2-2-2-x-x-5/--------------------------|
                     

------------|--------------------------------------------------|
------------|--------------------------------------------------|
------------|--------------------------------------------------|
------------|--------------------------------------------------|
------------|-1-1-1-1--1------------6-6-6-6--6-2-2-2-2-0-0-0-0-|
------------|------------2-2-2-2--2----------------------------|
   Verse (Bass)                    

------------|-1-x-x-x-1--x----------------------------------------------|
------------|-3-x-x-x-3--x--2-x-x-x-2--x----------8--x--4-4-4-4-2-2-2-2-|
------------|-3-x-x-x-3--x--3-x-x-x-3--x----8-8-8-8--x--4-4-4-4-2-2-2-2-|
------------|-3-x-x-x-3--x--4-x-x-x-4--x----8-8-8-8--x--4-4-4-4-2-2-2-2-|
------------|---------------4-x-x-x-4--x--5/6-6-6-6--x--2-2-2-2-0-0-0-0-|
------------|-----------------------------------------------------------|
   Verse riff     


------------|-1-x-x-x-1--x----------------------------------------------|
------------|-3-x-x-x-3--x--2-x-x-x-2--x----------8--x------------------|
------------|-3-x-x-x-3--x--3-x-x-x-3--x----8-8-8-8--x------------------|
------------|-3-x-x-x-3--x--4-x-x-x-4--x----8-8-8-8--x------------------|
------------|---------------4-x-x-x-4--x--5/6-6-6-6--x--2-2-2-2/5-5-5-5-|
------------|-----------------------------------------------------------|
   Verse Riff End                       

---------|---------------------------------|--|----------------------------|--|
---------|---------------------------------|--|--------------8-8-8-8-8-8\--|--|
---------|-3-3-3-3-3-3-3-------------------|--|-5--5--5-5/8--8-8-8-8-8-8\--|--|
---------|-3-3-3-3-3-3-3-0-5-5-5-5-5-5-5-0-|--|-5--5--5-5/8--8-8-8-8-8-8\--|--|
---------|-1-1-1-1-1-1-1-0-5-5-5-5-5-5-5-0-|4x|-3--3--3-3/6--6-6-6-6-6-6\--|2x|
---------|---------------0-3-5-5-3-3-3-3-0-|--|----------------------------|--|
   Chorus             

-|----------------------------------------------------------------------------
-|----------------------------------------------------------------------------
-|-3--3-3-------------------------------------------------3--3-3-0------------
-|-3--3-3-0-5---5-5-5-5-5-5-0-3---3-3-0-6---6-6-6-6-------3--3-3-0-5---5-5-5--
-|-1--1-1-0-5---5-5-5-5-5-5-0-3---3-3-0-6---6-6-6-6-------1--1-1-0-5---5-5-5--
-|--------0-3---3-3-3-3-3-3-0-1---1-1-0-4---4-4-4-4-3-4-5----------3---3-3-3--
  Interlude        

---------------------------------------|-------|------|-----|
---------------------------------------|-------|------|-----|
---------------------------------------|-------|------|-----|
-5-5-5-0-3---3-3-0-6---6-6-6-6-6-6-6\--|-------|------|-----|
-5-5-5-0-3---3-3-0-6---6-6-6-6-6-6-6\--|-------|------|-----|
-3-3-3-0-1---1-1-0-4---4-4-4-4-4-4-4\--|-------|------|-----|
                  m                      verse  chorus inter                  

-----|------------------------------------------------------------------------
-----|-6vvvvvvvb7b8r6b7r6vv6b8r6----------------------------------------------
-----|---------------------------6b8r6vvv6b8vvv8p6-6-9b11-----6h8-6-9b11r9vv--
-----|----------------------------------------------------6h8-----------------
-----|------------------------------------------------------------------------
-----|------------------------------------------------------------------------
  Solo                                                                             

------------------------------------------------------------------------------
--------------------------------8vvb9b10r9r8vv6b8vv6-6-6-8-6-8-9b11-6-8-12b---
-9vv8\--6/8--6-9-9-8-6-8-8-6vvv-----------------------------------------------
------------------------------------------------------------------------------
------------------------------------------------------------------------------
------------------------------------------------------------------------------
                                                                              

------------------------------------------------------------------------------
-14r12vvv-/15b17vvv12b14r12vvv---------7vv-----7vv-----7vv7-\6-6-\-5-5\-4-4\--
-------------------------------6b8r6vv-----6vv-----6vv------------------------
------------------------------------------------------------------------------
------------------------------------------------------------------------------
------------------------------------------------------------------------------
                                                                              

-----------|----------|------------|--------------------
-3vvvvv----|----------|------------|--------------------
-----------|----------|------------|-3---3-3------------
-----------|----------|------------|-3---3-3-0-5--5-5-5-
-----------|----------|------------|-1---1-1-0-5--5-5-5-
-----------|----------|------------|---------0-3--3-3-3-
            chorus     1/2 of inter  Outro                   

-----------------------------------------------|
-----------------------------------------------|
-----------------------------------------------|
-5-5-5-0-3---3-3-0-6---6-6-6-6-----------------|
-5-5-5-0-3---3-3-0-6---6-6-6-6-------8\--------|
-3-3-3-0-1---1-1-0-4---4-4-4-4-3-4-5-6\--------|
                               



COME AS YOU ARE
Slightly Palm Mute Riff 1
Vibrate Solo
Tuning: Whole Step Down (D G C F A D)

----|-------------------------------|--|-------------------------------|
----|-------------------------------|--|--------------------------5----|
----|-------------------------------|--|--------------------------4--2-|
----|-------------------------------|--|-----------------------------2-|
----|--------0---0---------2------2-|--|--------0---0---------2--------|
--0-|-0-1-2----2---2-2-1-0---0-0----|--|-0-1-2----2---2-2-1-0---0------|
  Verse/Intro                            Verse End                            

------------|---------0-----------------|--|
------------|---------5---------2---2---|--|
------------|-2\0-----4---------2---2---|--|
------------|-2\0-4-------4-2-2---2-----|--|
------------|-----4-----------0---0-----|--|
------------|---------------------------|--|
   Riff 1                                                                     

------------|---------0-------------------|-------|--------|
------------|---------5---------2-x-2-2-2-|-------|--------|
------------|-2\0-----4---------2-x-2-2-2-|-------|--------|
------------|-2\0-4-------4-2-2---x-2-2-2-|-------|--------|
------------|-----4-----------0-----0-0-0-|-------|--------|
------------|-----------------------------|-------|--------|
   Riff 1 End                               Verse   Riff 1                            

------------|---------0-----------------------|
------------|---------5-------------------2---|
------------|-2\0-----4-------2-2-2-2-2-2-2-0-|
------------|-2\0-4-------4-2-2-2-2-2-2-2-2-0-|
------------|-----4-----------------------0-0-|
------------|---------------------------------|
   Riff 1 End                                                                 

----|-------0---0-0-------------------|-------5-------------------------|--|
----|-----0-----0-0---3-3-3-3-3-3-3---|-----5-----------3-3-3-3-3-3-3---|--|
----|-4-4-------4-4-0-2-2-2-2-2-2-2-0-|-4-4-------4-4-0-2-2-2-2-2-2-2-0-|--|
----|-4-4-------4-4-0-0-0-0-0-0-0-0-0-|-4-4-------4-4-0-0-0-0-0-0-0-0-0-|--|
----|-2-2-------2-2-0---------------0-|-2-2-------2-2-0---------------0-|--|
----|---------------------------------|---------------------------------|--|
   Interlude                                                                  

------------|-------5----------------------|
------------|-----5----------3-3-3-3-3-3-3-|
------------|-4-4------4-4-0-2-2-2-2-2-2-2-|
------------|-4-4------4-4-0-0-0-0-0-0-0-0-|
------------|-2-2------2-2-0---------------|
------------|------------------------------|
    Interlude End                                                             

---|-----|---------------------------------------------------------|--|-----|
---|-2-2-|-2-2---5--7-7-2-2---5--7-7-2-2---5--7-7-9-9--9-9-7-7-5-5-|--|-2-2-|
---|-----|------------------------------------------11b------------|--|-----|
---|-----|---------------------------------------------------------|2x|-----|
---|-----|---------------------------------------------------------|--|-----|
---|-----|---------------------------------------------------------|--|-----|
    Solo                                                                      

------------|---0---------------|--------|
------------|---5---------2---2-|--------|
------------|---4---------2---2-|--------|
------------|-------4-2-2---2---|--------|
------------|-----------0---0---|--------|
------------|-------------------|--------|
              "iiiaaa"            Riff 1                                               

------------|-------0--------------2--------|--|-------0--------------2---|
------------|-----0----------3-3-3----3-3---|--|-----0----------3-3-3-----|
------------|-4-4------4-4-0-2-2------2-2-0-|--|-4-4------4-4-0-2-2-------|
------------|-4-4------4-4-0-0-0------0-0-0-|--|-4-4------4-4-0-0-0-------|
------------|-2-2------2-2-0--------------0-|--|-2-2------2-2-0-----------|
------------|-------------------------------|--|--------------------------|
    Interlude                           Interlude End             

------------|-----0------------|
------------|-----5------------|
------------|-----x------------|
------------|-----4------------|
------------|-----4------------|
------------|-0-0-2------------|
    End                        
                     



BREED
Standard Tuning
 
------------|-----------------|
------------|-----------------|
------------|-----------------|
------------|-4-4-4---4-7b----|
------------|-4-4-4---4-7b----|
------------|-0-2-2-0-2-5b-0--|
  Intro                                      

------------|-|---------|--|--------|-|
------------|-|-7-7-7-7-|--|--------|-|
------------|-|-6b6b6b6b|--|-5b-----|-|
------------|-|---------|7x|--------|-|
------------|-|---------|--|--------|-|
------------|-|---------|--|-----0--|-|
  Verse                                                                       
[ Tab from: http://www.guitartabs.cc/tabs/n/nirvana/nevermind_album_tab_ver_2.html ]
------------|-------------------------------|--|-----------------------------|
------------|-------------------------------|--|-----------------------------|
------------|-------------------------------|--|-----------------------------|
------------|-7-7-7-0------0-5-5-5-0-4--4-0-|--|-7-7-7-0------0-5-5-5-0-4--4-|
------------|-5-5-5-0-7--7-0-3-3-3-0-2--2-0-|--|-5-5-5-0-7--7-0-3-3-3-0-2--2-|
------------|-------0-5--5-0-------0------0-|--|-------0-5--5-0-------0------|
  Chorus                                                       



------------|-3-------------------6--------------------3-------------------5-
------------|-3------3-2-1--------5--------------------2-------2-1---------4-
------------|--------------4--3---3-------3-2-1--------1-----------3-2-1---2-
---------4/-|-------------------5---------------5--4-3-------------------5---
---------4/-|----------------------------------------------------------------
---------2--|----------------------------------------------------------------
              tremolo             tremolo              tremolo                  

---------------------|
---------------------|
---------------------|
---------------------|
---------------------|
---------------------|
 tremolo and slide up                                                         




LITHIUM
Verse Riff Varies throughout
TuningL Down Whole Step (D G C F A D)

------------|---------------------------------------------------------------|
------------|---------------------------------------------------------------|
------------|------------------6--------------------------------------------|
------------|------------------6---------7---x--x-x-xxx-x---x--x-x-xxx-x----|
------------|-x--------6-----x---------7---0-3--3-3-333-5-0-2--2-2-222-5-0--|
------------|-x--x-x-x---x-x-----x-x-5--------------------------------------|
  Intro Heavily Palm Muted                                                    

------------|--------------------------------------------------------------|
------------|--------------------------------------------------------------|
------------|------------------6----------------5--------------4-----------|
------------|----------------------------7---------------------------------|
------------|----------6-----4---------7---0-3----3-3/5-5-0-2----2-2/5-5-0-|
------------|-0--x-0-4---x-0-----x-0-5-------------------------------------|
  Verse          

------------|--------------------------------------------------------------|
------------|--------------------------------------------------------------|
------------|------------------6----------------5-----------4-4-4--7-7-7---|
------------|----------------------------7------------------4-4-4--7-7-7-0-|
------------|----------6-----4---------7---0-3----3-3/5-5-0-2-2-2--5-5-5-0-|
------------|-0--x-0-4---x-0-----x-0-5-----------------------------------0-|
  PreChorus                                  

------------|------------------------------------------------------------|
------------|------------------------------------------------------------|
------------|---------------6--6-----------5--5-5-5/7-7---4--4-4-4/7-7---|
------------|-2--2-0-6--6-0-6--6-0-7-7-7-0-5--5-5-5/7-7-0-4--4-4-4/7-7-0-|
------------|-2--2-0-6--6-0-4--4-0-7-7-7-0-3--3-3-3/5-5-0-2--2-2-2/5-5-0-|
------------|-0--0-0-4--4-0------0-5-5-5-0--------------0--------------0-|
  Chorus            

------------|------------------------------|--|
------------|------------------------------|--|
------------|----------5--5----------5-5---|--|
------------|-0-7--7-0-5--5-0-7--7-0-5-5---|--|
------------|-0-7--7-0-3--3-0-7--7-0-3-3---|--|
------------|-0-5--5-0------0-5--5-0-----3-|--|
 Interlude                                       

----------|----------------------------------------------------------------|---|
----------|----------------------------------------------------------------|---|
----------|----------5--5----------5-5-5-5-7-7-7-7-7-7-7---4-4-4-4-4-------|---|
----------|-0-7--7-0-5--5-0-7--7-0-5-5-5-5-7-7-7-7-7-7-7-0-4-4-4-4-4-------|-2-|
----------|-0-7--7-0-3--3-0-7--7-0-3-3-3-3-5-5-5-5-5-5-5-0-2-2-2-2-2-------|-2-|
----------|-0-5--5-0------0-5--5-0-----------------------0-----------0-3-0-|-0-|
 Interlude Out                                                               

------------|-----------------------|--------|
------------|-----------------------|--------|
------------|-----------------------|--------|
------------|-----------------------|--------|
------------|-----------------------|--------|
------------|-----------------------|-0------|
         Verse  Chorus Interlude End                  
                        



POLLY
Standard tuning

-------------|-------------------------------|
-------------|-------------------------------|
-------------|----------------7-7-x-5--------|
-------------|-2--x-0-5-5-x-0-7-7-x-5--5-5-4-|
-------------|-2--x-0-5-5-x-0-5-5-x-3--3-3-2-|
-------------|-0--x-0-3-3-x-0----------------|
   Verse                                       

-------------|-----------------------------|
-------------|-----------------------------|
-------------|-7---------------------------|
-------------|-7--x-5--5-5-0-5-5-x-3--3----|
-------------|-5--x-3--3-3-0-5-5-x-1--1-1/-|
-------------|-------------0-3-3-x---------|
   Chorus Pt.1                                     

-------------|------------------------------|--|
-------------|------------------------------|--|
-------------|---7--------------------------|--|
-------------|-7-7-x-5--5-5-0-5-5-x-3--3----|--|
-------------|-5-5-x-3--3-3-0-5-5-x-1--1-1/-|--|
-------------|--------------0-3-3-x---------|--|
   Chorus                                         

-------------|------------------------------|
-------------|------------------------------|
-------------|---7--------------------------|
-------------|-7-7-x-5--5-5-0-5-5-x-3--3-3--|
-------------|-5-5-x-3--3-3-0-5-5-x-1--1-1--|
-------------|--------------0-3-3-x---------|
   Chorus End                                                                 

-------------|-------------------------------|------------|
-------------|-------------------------------|------------|
-------------|-------------------------------|------------|
-------------|-------------------------------|------------|
-------------|----------------5-5-x-3--3-3-2-|------------|
-------------|-0--x-0-3-3-x-0----------------|------------|
   Interlude                                    End on E               




TERRITORIAL PISSINGS 
Standard Tuning

--------------|---------------------------------------------------------|
--------------|---------------------------------------------------------|
--------------|-----------------10-10-10-10-10-10-10-10-7-7-7-7-7-7-7-7-|
--------------|-7-7-7-7-7-7-7-7-10-10-10-10-10-10-10-10-7-7-7-7-7-7-7-7-|
--------------|-7-7-7-7-7-7-7-7-8--8--8--8--8--8--8--8--5-5-5-5-5-5-5-5-|
--------------|-5-5-5-5-5-5-5-5-----------------------------------------|
   Chorus                                                                     

--------------|--------|--|---------|
--------------|--------|--|-7b------|
--------------|--------|--|---7b----|
--------------|-----7--|--|-----7-7-|
--------------|-x-x-7--|--|---------|
--------------|-x-x-5--|--|---------|
   Interlude                                                                   
                          



DRAIN YOU
Tuning: Whole Step Down (DGCFAd)

--------------|-------------------------------|
--------------|-4--4-4-4----------------------|
--------------|-4--4-4-4/8-8---5--5-5-5-6-6---|
--------------|----------8-8---6--6-6-6-6-6---|
--------------|-----------------------------2-|
--------------|--------------4----------------|
  Intro                     (b)                  

--------------|--------------------------------|
--------------|-4--4-4-4-----------------------|
--------------|-4--4-4-4/8-8----5--5-5-5-6-6-4-|
--------------|----------8-8----6--6-6-6-6-6-4-|
--------------|--------------------------4-4-2-|
--------------|---------------4----------------|
                                                                

--------------|--------------------------------|--|---------------|
--------------|--------------------------------|--|---------------|
--------------|-4--4-4-4/-8-8------------6-6-4-|--|---------------|
--------------|-4--4-4-4/-8-8-6-6--6-6-6-6-6-4-|--|-4--4---2--2---|
--------------|-2--2-2-2/-6-6-6-6--6-6-6-4-4-2-|--|-4--4---2--2---|
--------------|---------------4-4--4-4-4-------|--|-2--2-0-0--0-0-|
  Verse                                         

--------------|---------------------------------|--|---------------|
--------------|---------------------------------|--|---------------|
--------------|-6-6-6-6-6-6-6-------------------|--|-6-6-6-6-6-6-6-|
--------------|-6-6-6-6-6-6-6-2-2-2-2-2-2-2-2-2-|--|-6-6-6-6-6-6-6-|
--------------|-4-4-4-4-4-4-4-2-2-2-2-2-2-2-2-2-|--|-4-4-4-4-4-4-4-|
--------------|---------------0-0-0-0-0-0-0-0-0-|--|---------------|
  Chorus Bend strings..                                                   

--------------|-----------|-------------|
--------------|-----------|-------------|
--------------|-----------|-------------|
--------------|-4--2--6---|---------1br-|
--------------|-4--2--6---|-------------|
--------------|-2-----4---|-4--4/10\----|
                                                                              

--------------|-----|-----|-----------------------|
--------------|-0---|-----|-5---------------------|
--------------|-0---|-----|-5---------------------|
--------------|-4/5-|-12x-|-----------------------|
--------------|-----|-----|-----------------------|
--------------|-----|-----|-----------------------|
  Interlude         h (natural harmonics)                                

--------------|------------------------------------------------------|
--------------|-5-4-3--2------4/5--2--2-3/4-4-4--4/6-6-6-------------|
--------------|-----------1------------------------------------------|
--------------|------------------------------------------------------|
--------------|------------------------------------------------------|
--------------|------------------------------------------------------|
  Interlude end                                  keep moving up frets>>> 

--------------|-------|--------|-----|
--------------|-------|--------|-----|
--------------|-------|--------|-----|
--------------|-------|--------|-----|
--------------|-------|--------|-----|
--------------|-------|--------|-----|
                Verse   Chorus   End                            




LOUNGE ACT
Standard

--------------|--------------------------------|
--------------|--------------------------------|
--------------|-4-4--x-4-4-4-4---------5-5-5-5-|
--------------|-4-4--x-4-4-4-4-5-5-5-5-5-5-5-5-|
--------------|-2-2--x-2-2-2-2-5-5-5-5-3-3-3-3-|
--------------|----------------3-3-3-3---------|
  Intro                                         

--------------|---------------------------------|--|
--------------|---------------------------------|--|
--------------|-4-4-4-x-4-4-4-4---------5-5-5-5-|--|
--------------|-4-4-4-x-4-4-4-4-5-5-5-5-5-5-5-5-|--|
--------------|-2-2-2-x-2-2-2-2-5-5-5-5-3-3-3-3-|--|
--------------|-----------------3-3-3-3---------|--|
  Verse                                        

--------------|-0-0-0--------------------|--|
--------------|-0-0-0------3-3-3--3-3-3--|--|
--------------|-x-x-x------x-x-x--2-2-2--|--|
--------------|-2-2-2--2-2-5-5-5--0-0-0--|--|
--------------|-2-2-2--0-x-5-5-5--0-0-0--|--|
--------------|----------4-3-3-3---------|--|
  Chorus                                              

--------------|---------------------------------|------------|
--------------|---------------------------------|------------|
--------------|---------------------------------|------------|
--------------|-2--------------2----------------|------------|
--------------|-0--------------0----------------|------------|
--------------|----4-4-4-3-3-3----4-4-4-3-3-3-3-|------------|
  Interlude                                        End On A                       




STAY AWAY
End song on D fading out.
Standard Tuning

--------------|------------------------------|--|
--------------|-------------1-1-1------------|--|
--------------|-2-2--4-4-4--x-x-x--5-5-5-5-2-|--|
--------------|-0-0--4-4-4--3-3-3--5-5-5-5-0-|--|
--------------|-0-0--2-2-2--3-3-3--3-3-0-3-0-|--|
--------------|-------------1-1-1------------|--|
 Intro/Chorus                                    

--------------|-------------------------------|
--------------|-------------------------------|
--------------|------------pb5-5-5-5brr-------|
--------------|-------------------------------|
--------------|-------------------------------|
--------------|-------------------------------|
  Verse           

--------------|----------------------------------------------------|--|
--------------|-3--3--3-3--3--3-3--3-3-3---------------------------|--|
--------------|-2--2--2-2--2--2-2--2-2-2---------------3-3-3-3br-2-|--|
--------------|-0--0--0-0--0--0-0--0-0-0--4--4--4-4--4-----------0-|--|
--------------|---------------------------4--4--4-4--4-----------0-|--|
--------------|---------------------------2--2--2-2--2-------------|--|
  Interlude                




ON A PLAIN
D tuning

--------------|--------------------|--|
--------------|--------------------|--|
--------------|----------------16--|--|
--------------|----------------15--|3x|
--------------|-------------14-----|--|
-------15\12--|-11-12p11-12--------|--|
   Intro                                                                      

--------------|--------------------------------|
--------------|-3--3---------------------------|
--------------|-2--2---------------------------|
--------------|-0--0-0-5-5-5-0-3-3-3-0-2-3-2-0-|
--------------|------0-5-5-5-0-3-3-3-0-2-3-2-0-|
--------------|------0-5-5-5-0-3-3-3-0-2-3-2-0-|
   Verse Pt.1                                 

--------------|--------------------------------|
--------------|-3--3---------------------------|
--------------|-2--2---------------------------|
--------------|-0--0-0-5-5-5-0-4-4-4-0-2-2-2-0-|
--------------|------0-3-3-3-0-2-2-2-0-0-0-0-0-|
--------------|------0-------0-------0-------0-|
   Verse Pt.2                                                                  

--------------|--------------------------------|
--------------|-3--3---------------------------|
--------------|-2--2---7-7-7---5-5-5-5-5-5-5---|
--------------|-0--0-0-5-5-5-0-3-3-3-3-3-3-3-0-|
--------------|------0-5-5-5-0-3-3-3-3-3-3-3-0-|
--------------|------0-5-5-5-0-3-3-3-3-3-3-3-0-|
   Chorus/PreChorus                                                           

--------------|--------------------------------------------------------|--|
--------------|--------------------------------------------------------|--|
--------------|--------------------------------------------------------|--|
--------------|-3--3-3--3-3--2--2-2--2-2--2--2-2--2-2--5-5-5-555-5-5-0-|--|
--------------|-3--3-3--3-3--2--2-2--2-2--0--0-0--0-0--5-5-5-555-5-5-0-|--|
--------------|-3--3-3--3-3--2--2-2--2-2---------------5-5-5-555-5-5-0-|--|
   Interlude            

--------------|----------------------------------------------------|
--------------|----------------------------------------------------|
--------------|----------------------------------------------------|
--------------|-3--3-3--3-3--2--2-2--2-2--2--2-2--2-2--5-5-5-555---|
--------------|-3--3-3--3-3--2--2-2--2-2--0--0-0--0-0--5-5-5-555---|
--------------|-3--3-3--3-3--2--2-2--2-2---------------5-5-5-555---|
   Interlude Out                                                              

--------------|-----------------------|
--------------|-----------------------|
--------------|-----------------------|
--------------|-----------------------|
--------------|-----------------------|
--------------|-----------------------|
                Verse Chorus Fade out                                        




SOMETHING IN THE WAY
D Tuning Down 1/2 Step

--------------|-----------------------|--|--------------------------|
--------------|-----------------------|--|--------------------------|
--------------|-----------------------|--|--------------------------|
--------------|-----4--4-4-----0--0-0-|--|-----4--4-4-----0-0-0-0-0-|
--------------|-4---4--4-4-5---5--5-5-|--|-4---4--4-4-5---5-5-5-5-5-|
--------------|-4------4-4-0------0-0-|--|-4------4-4-0-------0-0-0-|
   Verse Heavy Palm Mute                  P.M..........           

--------------|----------------------------------------------------| 
--------------|----------------------------------------------------|
--------------|----------------------------------------------------|
--------------|------------------------------------------0-0-0-0-0-|
--------------|-4---4-4---4-5---5-5--5-5-4---4-4---4-5---5-5-5-5-5-|
--------------|-4---4-4---4-0---0-0--0-0-4---4-4---4-0-------0-0-0-|
   Chorus P.M.             

--------------|------------------|
--------------|------------------|
--------------|------------------|
--------------|------------------|
--------------|-4---4-4---4-5----|
--------------|-4---4-4---4-0----|
   Chorus End  P.M.........                                                   


Comments