Nirvana - Mr Moustache Chords & Tabs

 

Mr Moustache Chords & Tabs

Nirvana Chords & Tabs

Version: 2 Type: Bass Tab 0 ratings
1 star 2 stars 3 stars 4 stars 5 stars
comments

Mr Moustache Bass Tab

hey, im 100 percent possitive that this tab is correct
standard tuning e,a,d,g, if u hav anything to say email me matt_bizkit88@hotmail.com

Inro play until chorus
G--------------------------|------------------------------------------------
D--------------------------|------------------------------------------------
A-----2--------------------|---1--------------------------------------------
E---3---3--2--1--0--1--2---|-3---3--2--1--0--1--2---------------------------
Chorus
G------------------|------------------------|-------------------|--------------
D------------------|------------------------|-------------------|--------------
A-2--0--3--33------|------------------------|-2--0--3--3--3-----|--------------
E--------------0---|-3--3--3--3--3--2--1--0-|----------------0--|-3--3--3--3--3

G------------------|------------------------|-------------------|------------------
D------------------|------------------------|-------------------|------------------
A-2--0--3--3--3----|------------------------|-2--0--3--3--3-----|------------------
E----------------0-|-3--3--3--3--3--2--1--0-|----------------0--|-3--3--3--3--3--4-

G------------------|------------------|------------------|----------------------------
D------------------|------------------|------------------|----------------------------
A------------------|------------------|-3--3--3--3--3--3-|-6--6--6--6--6--6--6--6-----
E-5--5--5--5--5--3-|-5--5--0--5--5--5-|------------------|----------------------------
[ Tab from: http://www.guitartabs.cc/tabs/n/nirvana/mr_moustache_btab_ver_2.html ]
G---------------------|---------------------|---------------------|----------------------
D---------------------|---------------------|---------------------|----------------------
A---------------------|---------------------|-3--3--3--3--3--3--3-|-6--6--6--6--6--6--6--
E-5--5--0--5--4--3--0-|-5--5--0--5--4--3--0-|---------------------|----------------------

G------------------------|------------------------|--------------------------------------
D------------------------|------------------------|--------------------------------------
A----2-------------------|----1-------------------|----1---------------------------------
E-3-----3--2--1--0--1--2-|-3-----3--2--1--0--1--2-|-3-----3--2--1--0--1--2---------------

G---------------------|---------------------|---------------------|----------------------
D---------------------|---------------------|---------------------|----------------------
A---------------------|---------------------|-3--3--3--3--3--3--3-|-6--6--6--6--6--6--6--
E-5--5--0--5--4--3--0-|-5--5--0--5--4--3--0-|---------------------|----------------------

-----------------------
-----------------------
-6--6--6--6--6--(6)\---
-----------------------
outro

G------------------------|------------------------|------------------------|-------------
D------------------------|------------------------|------------------------|-------------
A----2-------------------|----1-------------------|------------------------|---1---------
E-3-----3--2--1--0--1--2-|-3-----3--2--1--0--1--2-|-3--2--3--2--1--0--1--2-|3-----3--2---

------------|---------------------------------------------------------------------------
------------|---------------------------------------------------------------------------
------------|---------------------------------------------------------------------------
-1--0--1--2-|--3------------------------------------------------------------------------
Comments