Nirvana - Mr Moustache Chords & Tabs

 

Mr Moustache Chords & Tabs

Nirvana Chords & Tabs

Version: 1 Type: Bass Tab 0 ratings
1 star 2 stars 3 stars 4 stars 5 stars
comments

Mr Moustache Bass Tab

mr.moustache by nirvana


g----------------------------------
d-----------------------------------
a----2---------------1------------
e--3---3-2-1-0-1-2-3---3-2-1-0-1-2-
thats the whole verse thing
chorus


[ Tab from: http://www.guitartabs.cc/tabs/n/nirvana/mr_moustache_btab.html ]
do this twice then play
g--------------------------------------------------------------
d----------------------------------------------------------
a----------------------------------------------6-6-6-6-6-6-6-6-
e---5--5--5-5-5-5--5--5-5-5-5-5--8-8-8-8-8-8-8-------------------
i hope you understand this cause i sure as fuck can't 
tootles
Comments