Nirvana - More Than A Feeling Chords & Tabs

 

More Than A Feeling Chords & Tabs

Nirvana Chords & Tabs

Version: 1 Type: Tab 0 ratings
1 star 2 stars 3 stars 4 stars 5 stars
comments

More Than A Feeling Tab

Nirvana- More than feeling

x- Palm mute with fretting hand

e|--------x--x--x--x--------x--x--------x--x--x--x--------|
b|--------x--x--x--x--------x--x--------x--x--x--x--------|
g|--7--7--x--x--x--x--9--9--x--x--5--5--x--x--x--x--------|
d|--7--7--x--x--x--x--9--9--x--x--5--5--x--x--x--x--5--5--|
a|--5--5--x--x--x--x--7--7--x--x--3--3--x--x--x--x--5--5--|
e|--------x--x--x--x--------x--x--------x--x--x--x--3--3--|

This riff is continued throughout the song.

Towards the end, you can clearly hear, what I think is a second guitar, playing the following riff...
[ Tab from: http://www.guitartabs.cc/tabs/n/nirvana/more_than_a_feeling_tab.html ]
e|--------------------------------------------------------|
b|--------------------------------------------------------|
g|--------------------3--3--x--x--------------------6--6--|
d|--3--3--x--x--x--x--3--3--x--x--6--6--x--x--x--x--6--6--|
a|--3--3--x--x--x--x--1--1--x--x--6--6--x--x--x--x--4--4--|
e|--1--1--x--x--x--x--------------4--4--x--x--x--x--------|

... which is the intro to Teen spirit! Very wierd!

Info on this song:

This is a cover of a song by Boston, however, Nirvana only play about 50
seconds of it. It is more of a jam, than an actual song. It can be found
on Outcesticide Vol. 5- disintergration. The sound is sketchy, cos the
recordings not brilliant, but I'm pretty sure this is accurate. i couldn't
find a tab for this song, (the Nirvana way) on any of the sites I checked,
so I decided to do it myself. Enjoy!

any questions/comments welcome:

the_legend_kurt@hotmail.com
Comments