Nirvana - Molly's Lips Chords & Tabs

 

Molly's Lips Chords & Tabs

Nirvana Chords & Tabs

Version: 3 Type: Tab 0 ratings
1 star 2 stars 3 stars 4 stars 5 stars
comments

Molly's Lips Tab

Artist: Nirvana
Song: Molly's lips
tabbed by Coco
cocofuhgawz@hotmail.com


 
This is a very easy song, you can improvise the rhythm.
_____________________________________________________________________________

Intro

1|----------------------|
2|----------------------|
3|----------5--5--------|
4|--5-5-5---5--5--------|
5|--5-5-5--0/3-3--------|
6|--3-3-3---------------|



Riff

1|---------------------------|
2|---------------------------|
3|--------5-5---------5-5-5--|
4|-5-5-5--5-5--5-5-5--5-5-5--|
5|-5-5-5--3-3--5-5-5--3-3-3--|
6|-3-3-3-------3-3-3---------|
[ Tab from: http://www.guitartabs.cc/tabs/n/nirvana/mollys_lips_tab_ver_3.html ]
                 
End             
                 /
1|-------3---3--0------|
2|-----5---5-----------|
3|---------------------|
4|---------------------|
5|--5------------------|
6|--5------------------|


--------------------------------------

INTRO

RIFF
She said
She'd take me anywhere
She'd take me anywhere
As long as she stays with me

Kiss kiss Molly's lips 
Kiss kiss Molly's lips 
Kiss kiss Molly's lips 
Kiss kiss Molly's lips 

She said
She'd take me anywhere
She'd take me anywhere
As long as I stayed clean

Kiss kiss Molly's lips 
Kiss kiss Molly's lips 
Kiss kiss Molly's lips 
Kiss kiss Molly's lips 
Kiss kiss Molly's lips 
Kiss kiss Molly's lips 
Kiss kiss Molly's lips 
Kiss kiss Molly's lips 

END



Any comments or additions, please e-mail me to cocofuhgawz@hotmail.com
Comments