Nirvana - Moist Vagina Chords & Tabs

 

Moist Vagina Chords & Tabs

Nirvana Chords & Tabs

Version: 2 Type: Tab 0 ratings
1 star 2 stars 3 stars 4 stars 5 stars
comments

Moist Vagina Tab

   
Nirvana - Moist Vagina
	a.k.a. Marijuana

tuned down 1/2 step
tabbed by J. Wren (joewren@yahoo.com)

This is the tab for a live version i have on an old tape.
There really are only two riffs to the song; clean and distorted.
So here it is.

clean                                                                                
Eb--------2--------2--------2--------2------------------------------------------
Bb--------2--------2--------2--------2------------------------------------------
Gb--------------------------------------2--2--2--2--2--2--2--2--5--5--5--5------
Db--------------------------------------2--2--2--2--2--2--2--2--5--5--5--5------
Ab--------------------------------------0--0--0--0--0--0--0--0--3--3--3--3------
Eb--0--2-----0--2-----0--2-----0--2---------------------------------------------
                                                                                

                distortion                                                               
Eb--------------|--------2--------2--------2--------2---------------------------
Bb--------------|--------2--------2--------2--------2---------------------------
Gb--5--5--5--5--|--------------------------------------2--2--2--2--2--2--2------
Db--5--5--5--5--|--2--4-----2--4-----2--4-----2--4-----2--2--2--2--2--2--2------
Ab--3--3--3--3--|--2--4-----2--4-----2--4-----2--4-----0--0--0--0--0--0--0------
Eb--------------|--0--2-----0--2-----0--2-----0--2------------------------------
                                                                                
[ Tab from: http://www.guitartabs.cc/tabs/n/nirvana/moist_vagina_tab_ver_2.html ]
                                                                                
Eb------------------------------------------------------------------------------
Bb------------------------------------------------------------------------------
Gb--2--5--5--5--5--5--5--5--5---------------------------------------------------
Db--2--5--5--5--5--5--5--5--5---------------------------------------------------
Ab--0--3--3--3--3--3--3--3--3---------------------------------------------------
Eb------------------------------------------------------------------------------
                                                                                
She has a moist vagina 
I particularly enjoy the circumference 
I'll be sucking warts off her anus 

I prefer her to any other 
Marijuana
================================================================================
==                           TABLATURE EXPLANATION                            ==
================================================================================

----------                ----------                ----t---
----5h8--- Hammeron       ----(8)--- Ghost          ----6--- Tap
----------                ---------- Note           --------
----5p8--- Pulloff        ----------                --------

----------                ----------                -----p--
----5/8--- Slide Up       -----x---- Dead           -----7-- Pop
----------                ---------- Note           --s-----
----5\8--- Slide Down     ----------                --5----- Slap 

----------                ||------|| Repeat         --------
----5~~~-- Vibrato        ||*----*||                ---5^--- Bend
----------                ||*----*||                --------
----------                ||------||                --------

----------                ----------                --------
-4:------- Time           ----------                --------
-4:------- Signature      ----------                --------
----------                ----------                --------

================================================================================
==                   Created with BUCKET O' TAB for Windows                   ==
================================================================================
Comments