Nirvana - Milk It Chords & Tabs

 

Milk It Chords & Tabs

Nirvana Chords & Tabs

Version: 3 Type: Tab 0 ratings
1 star 2 stars 3 stars 4 stars 5 stars
comments

Milk It Tab

   
				MILK IT  

Standard tuning dropped down ˝step

The song starts with two guitars playing improvised licks on the high strings
and quite high on the neck. No need for tabbing...but remember that even that
improvised lick has a certain rhythm. Listen to it carefully. The same applies
for the "Guitar solo". 


CHORUS/INTRO 

A#5  E5	  G5   		G#5   E    A#5  E5   G5   			
----------------I-----------------I----------------I-----------------I
----------------I-----------------I----------------I-----------------I
------9-9-------I-----------------I------9-9-------I-----------------I twice
8-8-8-9-9-5-5---I-5-5-5-6-6---2---I8-8-8-9-9-5-5---I-5---------------I
8-8-8-7-7-5-5---I-5-5-5-6-6---2-0-I8-8-8-7-7-5-5---I-5---------------I
6-6-6-----3-3-0-I-3-3-3-4-4-0-0-0-I6-6-6-----3-3-0-I-3---------------I
[ Tab from: http://www.guitartabs.cc/tabs/n/nirvana/milk_it_tab_ver_3.html ]
A#5  E5	  G5     N.C.
----------------I----------------I
----------------I----------------I
------9-9-------I----------------I
8-8-8-9-9-5-5---I----------------I
8-8-8-7-7-5-5---I----------------I
6-6-6-----3-3-0-I-3--3-4-4b-0-0-0I


CHORUS("Look on the bright side...") 
----------------I-----------------I
----------------I-----------------I
------9-9-------I-----------------I
8-8-8-9-9-5-5---I-5-5-5-6-6---2---I
8-8-8-7-7-5-5---I-5-5-5-6-6---2-0-I
6-6-6-----3-3-0-I-3-3-3-4-4-0-0-0-I

PRE-VERSE RIFF
----------------I-------------3---I
----------------I-----------------I
----------------I----------3------I
----------------I-----------------I
----------------I-----------------I
6-6-6-6-6-6-6-6-I-0-0-0-0---------I

VERSE (watch out for the offbeat drumming)
----------------I-----------------I
----------------I-----------------I
----------------I-----------------I
----------------I-----------------I
----------------I-----------------I
6-6-6-6-6-6-6-6-I-0-0-0-0-0-0-0-0-I



Kenneth Cerda. Managua, Nicaragua
kenven_maiden@yahoo.com
Comments