Nirvana - Mexican Seafood Chords & Tabs

 

Mexican Seafood Chords & Tabs

Nirvana Chords & Tabs

Version: 3 Type: Tab 0 ratings
1 star 2 stars 3 stars 4 stars 5 stars
comments

Mexican Seafood Tab

Tabbed by David Kinnear
Artist: Nirvana
Album: Incesticide
Song: Mexican Seafood, #11

Intro + Chorus
E|----------------------------------|
B|----------------------------------|
G|--------x------x--------x---------|
D|---6--6-x-4--4-x-3--3-3-x-4-4-4---|
A|---6--6-x-4--4-x-3--3-3-x-4-4-4---|
E|---4--4-x-2--2-x-1--1-1-x-2-2-2---|x4 play fast

verse
E|-------------------------|
B|-------------------------|
G|--3--------3--------3----|
D|--2--2-2-2-2--2-2-2-2----|
A|--1--1-1-1-1--1-1-1-1----|
E|----------------------3--| repeat as many times as needed
[ Tab from: http://www.guitartabs.cc/tabs/n/nirvana/mexican_seafood_tab_ver_3.html ]
Solo 1
E|-----------------------------|----------------------------|
B|-----------------------------|----------------------------|
G|-----------------------------|----------------------------|
D|--6--5-4-3-2-6-5-4--4-3-4-5--|-6--5-4-3-2-6-5-4--4-3-4-5--|
A|-----------------------------|----------------------------|
E|-----------------------------|----------------------------|x2

Solo 2
E|-----------------------------------|
B|-----------------------------------|
G|-----------------------------------|
D|------------------6-5-4-3----------|
A|----------1-2-3-4---------5-4-3-2--|
E|--0-1-2-3--------------------------|x2

tabbed by David Kinnear
Comments