Nirvana - Marigold Chords & Tabs

 

Marigold Chords & Tabs

Nirvana Chords & Tabs

Version: 1 Type: Tab 0 ratings
1 star 2 stars 3 stars 4 stars 5 stars
comments

Marigold Tab

This songs kicks ass! Dave Grohl takes the mike for this one...
Tabbed by Mark Jones

Marigold
by Nirvana

Verse
e-------------------------------|
B-------------------------------|
G--8-8--------------------------|
D--8-8--8--8-8--8-8-8-9--9-9----|
A--6-6--8--8-8--8-8-8-9--9-9----|
E-------6--6-6--6-6-6-7--7-7-6--|
[ Tab from: http://www.guitartabs.cc/tabs/n/nirvana/marigold_tab.html ]
Chorus
e----------------------------------------------------------------------|
B----------------------------------------------------------------------|
G--------------------8-8--8-8-8----------------------------------------|
D--4-4-4-4--6-6-6-6--8-8--8-8-8-10-10--10--10-10-10--9-9-9-9-9-9-9-9-9-|
A--4-4-4-4--6-6-6-6--6-6--6-6-6-10-10--10--10-10-10--9-9-9-9-9-9-9-9-9-|
E--2-2-2-2--4-4-4-4-------------8--8---8---8--8--8---7-7-7-7-7-7-7-7-7-|

Verse 1
He's there, case i want it all
He's scared, 'cause i want
He's scared, case i want in all
He's scared 'cause i want

Chorus
All in all the clock is slow
Six coloured pictures all in a row
Of a Marigold

(Play Verse without singing)

Verse 2
He's there, case i want it all
He's scared, 'cause i want
He's there, case i want in all
He's scared 'cause i want

(Chorus)

Verse 3
He's there, case i want it all
He's scared, 'cause i want
He's there, case i want in all
He's there 'cause i want

(Chorus)
Comments