Nirvana - Lounge Act Chords & Tabs

 

Lounge Act Chords & Tabs

Nirvana Chords & Tabs

Version: 6 Type: Tab 0 ratings
1 star 2 stars 3 stars 4 stars 5 stars
comments

Lounge Act Tab

   
standard tuning

verse

e ------------------------------|
b ------------------------------|
g --4-4-4-4-4-------5-5-5-------|
d --4-4-4-4-4--5-x--5-5-5-------|
a --2-2-2-2-2--5-x--3-3-3-------|
e -------------3-x--------------|
[ Tab from: http://www.guitartabs.cc/tabs/n/nirvana/lounge_act_tab_ver_6.html ]
Chorus
   E       A       D       G
e -0-0-0---0-0-0---2-2-2---3-3-3--|
b -0-0-0---2-2-2---3-3-3---0-0-0--|
g -1-1-1---2-2-2---2-2-2---0-0-0--|
d -2-2-2---2-2-2---0-0-0---0-0-0--|
a -2-2-2---0-0-0-----------3-3-3--|
e -0-0-0--------------------------|

 "Still........
e --------------------------------|
b --------------------------------|
g --------------------------------|
d -2------------6-6--5------------|
a -2------------6-6--5------------|
e -0------------4-4--3------------|
   let ring

Now all u have to do is figure out timing and how many times.  It's a simple
song so try playing it and singing at the same time.  Any questions or comments
email me at scud22a@hotmail.com
Comments