Nirvana - Lounge Act Chords & Tabs

 

Lounge Act Chords & Tabs

Nirvana Chords & Tabs

Version: 5 Type: Tab 0 ratings
1 star 2 stars 3 stars 4 stars 5 stars
comments

Lounge Act Tab

nirvana
lounge act

intro:
drums and bass

guitar intro:

E|----------------------
B|------------0---------
G|--2--4-4-4--0--5-5-5--                 
D|--2--4-4-4--0--5-5-5--                 
A|--0--2-2-2-----3-3-3--   
E|------------3--------- 

the verse is:
[ Tab from: http://www.guitartabs.cc/tabs/n/nirvana/lounge_act_tab_ver_5.html ]
e|--------------------------------
b|----------------0--0-0----------
g|--2-2-2--4-4-4--0--0-0--5-5-55--
d|--2-2-2--4-4-4--0--0-0--5-5-55--
a|--2-2-2--2-2-2----------3-3-33--
e|----------------3--3-3----------

chorus:
"and i've got this friend you see, he makes me feel...."

E|--2-2-2----------------------------
B|--2-2-2---2-2-2---0-0-0--0-0-0-0---
G|--1-1-1---3-3-3---0-0-0--0-0-0-0---
D|--2-2-2---0-0-0---0-0-0--0-0-0-0---
A|--2-2-2---0-0-0--------------------
E|--0-0-0-----------3-3-3------------

thats it. i know its right because thats what THE BOOK said. peace
Comments