Nirvana - Lounge Act Chords & Tabs

 

Lounge Act Chords & Tabs

Nirvana Chords & Tabs

Version: 1 Type: Tab 0 ratings
1 star 2 stars 3 stars 4 stars 5 stars
comments

Lounge Act Tab

   
submitted by john K

this song sounds so good its only a string of chords,
its simple

Lounge act:nirvana 
[ Tab from: http://www.guitartabs.cc/tabs/n/nirvana/lounge_act_tab.html ]
bass intro, then:
intro/verse
       B                          G           C
----------------------------------3-3-----------------------------------
-------4---4---4-----------------------------5-5-5------------------
-------4---4---4-----------------------------5-5-5------------------
-------4---4---4-----------------------------5-5-5------------------
-------2---2---2---------------2-2---------3-3-3------------------
----------------------------------3-3-----------------------------------     

 Chorus
 E        A       D       G      x4
 
 then:
      let ring............
---------------------------------------------3--3----------------------  
-----2---------------------------------------------------------------
-----2----------------------------------------------------------------
-----2------------------------------------------------------------------
------------------------------------3-------2--2------------------------
-----------------------------4--------------3--3------------------------   
  Smell her on you..................x2
Comments