Nirvana - Lounge Act Chords & Tabs

 

Lounge Act Chords & Tabs

Nirvana Chords & Tabs

Version: 9 Type: Bass Tab 0 ratings
1 star 2 stars 3 stars 4 stars 5 stars
comments

Lounge Act Bass Tab

this is my first tab, but im sure the song is playing on this way.

bass intro/verse
G----------------------------------------------------------------|
D----------------------------------------------------------------|
A-1/2--5-4------------5---5-4-2-0-2-5-4---------------3-2-0------|
E-----------2--3-2--3/-------------------2--3-2--3----------3----|


refrain
G----------------------------------------------------------------|
D---------5/7--5--------------------0-2--------------------------|
A-----0-0--------7--5--5----------2-------0---0---4--------------|
E--0------------------------3-3-3--------------------------------|
[ Tab from: http://www.guitartabs.cc/tabs/n/nirvana/lounge_act_btab_ver_9.html ]

verse
G----------------------------------------------------------------|
D-------------------------5-5-5-5--------------------------------|
A--5-0-----------2--5-0------------------------------------------|
E------2-3-3-2-3--------2---------0---5---5---5---5--------------|


ending
G-----------------------------------------------------------------|
D--------------------------------6-6-6-5-5-5----------------------|
A---------------------------------------------x-------------------|
E--4-4-4-3-3-3-2-4--5--5--5--5------------------------------------|


i think its better you hear the timing on the song, alright?!
Have Fun!!!
Comments