Nirvana - Lounge Act Chords & Tabs

 

Lounge Act Chords & Tabs

Nirvana Chords & Tabs

Version: 1 Type: Bass Tab 1 rating
1 star 2 stars 3 stars 4 stars 5 stars
comments

Lounge Act Bass Tab

Artist: Nirvana
Song: Lounge act


Note: I looked at the tab that already exists at this site and 
realized that it contained the same notes and everything, but if 
something is worth doing,its worth doing right. This is the way krist
does it.

                                verse

G------------------------------------------------------------
D------------------------------------------------------------
A------5-9------------3/5-3-2-0---------5-4------------------
E-5/7--------2-3-2-3-----------------7-------2-3-2-3-8-7-5-3-
[ Tab from: http://www.guitartabs.cc/tabs/n/nirvana/lounge_act_btab.html ]
                               chorus

G------------------------------------------------------------
D--------5-7-5-0-----0---------------------------3-----------
A----------------0-5---0-----------------------5---5---------
E-0-0-5-------------------3-3-0-3--0-0-5-5-3-5--------3-3-0-3

                             post chorus

G-------------------------------------------
D-------------------------------------------
A-0-0-0-0-0----------0-0-0-0-0----3-5-------
E-----------4-4-3-3-------------4-----3-3-3-

Have fun, NIRVANA RULES
Tabed by uglyguy01 
Comments