Nirvana - Lithium Chords & Tabs

 

Lithium Chords & Tabs

Nirvana Chords & Tabs

Version: 9 Type: Tab 0 ratings
1 star 2 stars 3 stars 4 stars 5 stars
comments

Lithium Tab

Tabbed by: Andrew M. Dunnington
Tuning: Drop D
 
   Intro/Verse is palm muted
e-------------------------------------------------------------]
b-------------------------------------------------------------]
g-------------4-----------3-3-3-3-3/5-5-5-5-2-2-2-2-2/5-5-5-5-]
d-0-----4-----4-------5---3-3-3-3-3/5-5-5-5-2-2-2-2-2/5-5-5-5-]
a-0-----4---2-------5-----1-1-1-1-1/3-3-3-3-0-0-0-0-0/3-3-3-3-]
d-0---4-----------5-----5-------------------------------------]

[ Tab from: http://www.guitartabs.cc/tabs/n/nirvana/lithium_tab_ver_9.html ]
   Chorus
d----------------------------------------------------------]
b----------------------------------------------------------]
g-----------4-4--------3-3-3-3-3/5-5-5-5-2-2-2-2-2/5-5-5-5-]
d-0--0-4-4--4-4--5-5---3-3-3-3-3/5-5-5-5-2-2-2-2-2/5-5-5-5-]
a-0--0-4-4--2-2--5-5---1-1-1-1-1/3-3-3-3-0-0-0-0-0/3-3-3-3-]
d-0--0-4-4-------5-5---------------------------------------]


   "I like it I'm not gonna crack."
e-----------------------------]  
b-----------------------------] 
g-----------------------------] 
d-5--5-5-8--8-8-5--5-5-8--8-8-]  8x
a-5--5-5-8--8-8-5--5-5-8--8-8-]
d-5--5-5-8--8-8-5--5-5-8--8-8-]

e---------------------------------------------]
b---------------------------------------------]
g---------------------------------------------]
d-10-10-10-10-10-10-10-10-7-7-7-7-7-7-0-3--0v-]
a-10-10-10-10-10-10-10-10-7-7-7-7-7-7-0-3--0v-]
d-10-10-10-10-10-10-10-10-7-7-7-7-7-7-0-3--0v-]

Listen to song for timing.
Any question's email me at
fender_bender_rocker@yahoo.com
Comments